Author: KC

Verse
e---------|-------
B---------|-------
G---------|-------
D---2-----|-------
A-3-------|--2----
E-----3—3-|3---33-

Chorus

e-------------|-----------
B-------------|-----------
G-4-------(x3)|-2---------
D-4-5-555-----|-2-3-333---
A-2-5-555-----|-0-1-111---
E---3-333-----|—----------

Post Chorus
e-------------------------
B-10-11~-10/11-10---------
G-------------------------
D-------------------------
A-------------------------
E-------------------------

Bridge (Come On! Part)
e------------------------------
B------------------------------
G-4--------------2------3------
D-4—(many times)-2-(X3)-3-(X5)-
A-2--------------0------1------
E------------------------------

That’s it, there’s some variations but nothing really

Any comments or corrections let me know at [email protected]





Ваше мнение



Капча