Insane Clown Posse - Piggy Pie (old School Version)
Submitted By: Jason Lee
EMail: [email protected]
album: Forgotten Freshness 2
intro/chorus:
E:---------------------------------|
B:---------------------------------|
G:-6-------6-------6---------------|
D:-6---6-6-6---6-6-6-------6-4---4-|
A:-4---4-4-4---4-4-4---4-6-----6---|
E:---------------------------------|
1 + 2 + 3 + 4 + |
play three times then:
E:---------------------------------|
B:---------------------------------|
G:-6-------6-------6-----------4---|
D:-6---6-6-6---6-6-6-------4-6-----|
A:-4---4-4-4---4-4-4---4-6---------|
E:---------------------------------|
1 + 2 + 3 + 4 + |
nothing during the verse save for the occasional
harmonics
final riff thing over last few choruses
E:-----------------|----------------|
B:-----------------|----------------|
G:-4-----------4-4/|9-----------9-9|repeat a bunch
D:-----------------|----------------|
A:-----------------|----------------|
E:-----------------|----------------|
1 + 2 + 3 + 4 + |1 + 2 + 3 + 4 + |
that's the whole thing
tabbed out 11/11/02 by =jl=





Ваше мнение



Капча