This song was released at InsaneClownPosse.com the night before Thanksgiving
Verse
G----------------------------------------
D----------------------------------------
A---------------5--55--------------------
E-0--00--5--55---------3---33------------
Chorus
G----------------------------------------
D----------------------------------------
A---------------5(x8)--------------------
E-0(x8)-—5(x8)---------3(x8)-------------
Post Chorus
G----------------------------------------
D----------------------------------------
A----------------------------------------
E-0-00--0-0-0-000------------------------
If you have any questions or anything e-mail me at [email protected]





Ваше мнение



Капча