What up juggalos, this is another easy song to play.

#x= mute that note
~= bend
tuning e-a-d-g-b-e

Intro
----------------------------------
----------------------------------
-15~-17-15------------------------
---------16-14~-------------------
----------------------------------
----------------------------------

Riff one
----------------------------------
----------------------------------
----------------------------------
-----3x-3x-3x-3x-----3x-3x-3x-3x--{repeat once}
-3-3-------------3-3--------------
-1-1-------------1-1--------------

Riff two
----------------------------------
----------------------------------
----------------------------------
-----2x-2x-2x-2x-----2x-2x-2x-2x--{repeat once}
-2-2-------------2-2--------------
-0-0-------------0-0--------------

Riff 3 (mid solo)
----------------------------------
----------------------------------
----------------------------------
-10_8_10-6-8--[go back to riff one
-10_8_10-6-8--
--8-6--8-4-6--





Ваше мнение



Капча