Its got a second guitar, and some fills that I don't know
but i'll give you what I can...
Intro:
E-----------0--------------------------------0-----|
B-----------0--------------------------------0-----|
G--------------------------------------------------|
D-----2----------------2--4-4--2-------2-----------|
A-2H4----------4---2H4----5-5--4---2H4----------4--|
E--------0--------------------------------0--------|
E-----------------------------|
B-----------------------------|
G----------------9------------|
D-----2--4-4--2--9H11-9-7-----|
A-2H4----5-5--4-----------9-7-|
E-----------------------------|
Verse:
E-----------0--------------------------------0---------------------|
B-----------0--------------------------------0---------------------|
G-----------------------------------------------------------------o|
D-----2----------------2--4-4--2-------2----------------2--4-4--2-o|
A-2H4----------4---2H4----5-5--4---2H4----------4---2H4----5-5--4--|
E--------0--------------------------------0------------------------|
Pre-Chorus:
E------------------------------|
B-----------3--------------3---|
G-2---------2----2---------2---|
D-2-----2H4------2-----2H4-----|
A-0--------------0-------------|
E------------------------------|
Chorus:
E----------------------------|-------------------------------------|
B----------------------------|-------------------------------------|
G---------------6-6--4--4-4-o|-2-2-2-2-2-2-2-2--4-4-4-4-4-4--------|
D-2--x-2--2-2---6-6--4--4-4-o|-2-2-2-2-2-2-2-2--4-4-4-4-4-4------2-|
A-2--x-2--2-2---4-4--2--2-2--|-0-0-0-0-0-0-0-0--2-2-2-2-2-2--2H4---|
E-0--x-0--0-0----------------|-------------------------------------|
Well thats really all there is...





Ваше мнение



Капча