#----------------------------------PLEASE NOTE---------------------------------#
#This file is the author's own work and represents their interpretation of the-#
#song. You may only use this file for private study, scholarship, or research.-#
#------------------------------------------------------------------------------#
Insane Clown Posse - Hokus Pokus
Submitted By: Jason Lee
EMail: [email protected]
album: The Great Milenko

G:-----------------|----------------|
D:---------------2-|----------------|play
A:-4-------2---2---|4-------2---2---|four
E:-------4---4-----|------4---4-----|times
1 + 2 + 3 + 4 + |1 + 2 + 3 + 4 + |
G:-----------------|----------------|
D:---------------7-|----------------|play
A:-9-------7---7---|9-------7---7---|two
E:-------9---9-----|------9---9-----|times
1 + 2 + 3 + 4 + |1 + 2 + 3 + 4 + |
those are the song's two riffs. alternate between
them where necessary
tabbed out 11/8/02 by =jl=
================================================================================





Ваше мнение



Капча