icp, hall of illusions
pat haefner, [email protected]
ns'Insane Clown Posse 'Hall Of Illusions'
Tune the LOW down to D
Main Riff
~~~~~~~~~
E-------------
B-------------
G-------------
D--0----6-5-3- This plays and repeats during every chorus
A--0----6-5-3-
D--0----6-5-3-

Sossolo
E--------------------------------------------------------------------------------------------10-10-10-10-10------------
B-10-10-10-10-10-10-10-10-10-10-10-10-10-10-10-10-10----8-10-----------10--------------------10?10---
G------------------------------------------------------------------------------7-8?7------------------------------------7
D---------------------------------------------------------------------------------------------------------------------------
A---------------------------------------------------------------------------------------------------------------------------
D---------------------------------------------------------------------------------------------------------------------------





Ваше мнение



Капча