Insane clown posse - cherry pie.
slide down
intro
e|--------------------------------|
b|--------------------------------|
g|--------------------------------|
D|--------------------------------|
A|-71-0--0-0--71-0--0---0--0-0--|
E|---------------------0-3--------|
verse
e|--------------------------------|
b|--------------------------------|
g|--------------------------------|
D|--------------------------------|
A|-0--0-0--0--0-0--0--0-0--0--0---|
E|-----------------------------0-3|
chorus
e|-------------------|
b|-------------------|
g|-------------------|
D|-------------------|
A|0--0-0-71-0-------|
E|------------0-3----|

Any other tabs? e-mail [email protected]
props to ICP,
oudie.......SkIn





Ваше мнение



Капча