insane clown posse

Blaaam!!!!!

this song is fressh as hell and is off the 6th

the only guitar is in the chorus, heres the tabs

CHORUS
e--------------------
B--------------------
G----------10/-------
D-10/-(00)-10/-(00)--
A-10/-(00)--8/-(00)--
D-10/-(00)-----(00)--

e--------------------
B--------------------
G----------10/-------
D-10/-(00)-10/-(00)--
A-10/-(00)--8/-(00)--
D-10/-(00)-----(00)--

e--------------------
B--------------------
G----------10/-------
D-10/-(00)-10/-(00)--
A-10/-(00)--8/-(00)--
D-10/-(00)-----(00)--

e--------------------
B--------------------
G----------10/-------
D-10/-(00)-10/-(00)--
A-10/-(00)--8/-(00)--
D-10/-(00)-----(00)--

yupp aiiight peace ninjas





Ваше мнение



Капча