Tabbed By - Rob M

Intro
|-------X4------|
e||---------------|---------------|
b||---------------|---------------|
g||---6--8--------|---------------|
d||---6--8--------|-666666666666--|
a||---4--6--------|-444444444444--|
e||---------------|---------------|

Verse
e||----------------------------------------------------------|
b||----------------------------------------------------------|
g||-----------------------------------------------------6--8-|
d||--44444444333333332222222211111111-------------------6--8-|
a||-----------------------------------------------------4--6-|
e||----------------------------------------------------------|

Chorus (Palm Muted)
e||---------------------------------|
b||---------------------------------|
g||----------------------------6--8-|
d||--555-444-555-444-----------6--8-|
a||--555-444-555-444-----------4--6-|
e||--333-222-333-222----------------|

Ending Riff
e||---------------|
b||---------------|
g||---------------|
d||--5-4-5-4------|
a||--5-4-5-4------|
e||--3-2-3-2------|





Ваше мнение



Капча