icp, another love song
pat haefner, [email protected]
Insane Clown Posse 'Another Love Song'
Intro
~~~~~
|--------------------------------------------------------------|
|--------------------------------------------------------------|
|--------------------------------7-7-7-7--7-7-7-7-7-7-7--7-7-7-|
|--7-7-7-7--7-7-7-7-7-7-7--7-7-7-7-7-7-7--7-7-7-7-7-7-7--7-7-7-|
|--7-7-7-7--7-7-7-7-7-7-7--7-7-7-5-5-5-5--5-5-5-5-5-5-5--5-5-5-|
|--5-5-5-5--5-5-5-5-5-5-5--5-5-5-------------------------------|

Verse
~~~~~
Upstroke on the upbeat
|-------------------------------------------------|
|-------------------------------------------------|
|--------------------------7--7--7--7--7--7--7--7-|
|--7--7--7--7--7--7--7--7--7--7--7--7--7--7--7--7-|
|--7--7--7--7--7--7--7--7--5--5--5--5--5--5--5--5-|
|--5--5--5--5--5--5--5--5-------------------------|

Chorus
~~~~~~
All downbeat
|-------------------------------------------------|
|-------------------------------------------------|
|--------------------------7--7--7--7--7--7--7--7-|
|--7--7--7--7--7--7--7--7--7--7--7--7--7--7--7--7-|
|--7--7--7--7--7--7--7--7--5--5--5--5--5--5--5--5-|
|--5--5--5--5--5--5--5--5--------------------------------------------------------------|





Ваше мнение



Капча