Artist: Iced Earth
Title: Watching Over Me
Album: Something Wicked This Way Comes
Tabbet by:Ernie,Rob Osbourne

This song is tuned 1/2 step down.

----0---3---3----------------------------------------------------------------
----0---3---3----------------------------------------------------------------
----0---0---0----------------------------------------------------------------
----2---2---0---0-0-0------------------------------------------------------
----2---3---2---0-0-0------------------------------------------------------
----0-------3---2-3-2-0---------------------------------------------------
chorus

-------------------------------------------------------------------------------
-------------------------------------------------------------------------------
-------------------------------------------------------------------------------
----------55555555--------------------------------------------------
--222222--33333333--555555----4---4-5-4----------------------
--000000------------333333----2-0-2-3-2---------------------
solo rythem is the same as the chorus just play it at a different beat

------------------------------------------------------------------------------
------------------------------------------------------------------------------
------------------------------------------------------------------------------
-----------55555555-----------------------------------------------
-22222222--33333333--55555555---4---4-5-4----------------
-00000000------------33333333---2-0-2-3-2---------------


------------------------------------------------------------------------------
------------------------------------------------------------------------------
------------------------------------------------------------------------------
-5555555555----4-5---------------------------------------------------
-3333333333----2-3-----------2-3------------------------------
-------------------------------------3-2-------------------------------------====




Ваше мнение



Капча