Artist: Iced Earth
Title: Slave To The Dark Solos
Album: The Dark Saga
Transcribed by: Stefanos Danakos
Email: [email protected]
Web site: http://www.metalprovider.com/sdanakos
SOLO 1 (with tons of delay)
eb)|-17t13p10h13p10-20t13p10h13p10-17t13p10h13p10-19t13p10h13p10-17t13p10h13p10-19t13p10h13p10-20t13p10h13p10-22t13p10h13p10-|
Bb)|-------------------------------------------------------------------------------------------------------------------------|
Gb)|-------------------------------------------------------------------------------------------------------------------------|
Db)|-------------------------------------------------------------------------------------------------------------------------|
Ab)|-------------------------------------------------------------------------------------------------------------------------|
Eb)|-------------------------------------------------------------------------------------------------------------------------|
eb)|-20p0-19p0-17p0-19p0-17p0-15p0-17p0-15p0-13p0-15p0-13p0-12~---12p0-13p0-15p0-13p0-15p0-17p0-15p0-17p0-19p0-(19)/20~---|
Bb)|----------------------------------------------------------------------------------------------------------------------|
Gb)|----------------------------------------------------------------------------------------------------------------------|
Db)|----------------------------------------------------------------------------------------------------------------------|
Ab)|----------------------------------------------------------------------------------------------------------------------|
Eb)|----------------------------------------------------------------------------------------------------------------------|
/Fyll
eb)|-20p19p17-20--20p19p17-20--20p19p17-20--20p19p17-20--20p19p17-20--20p19p17-20--22(24)------r(22)---|
Bb)|---------------------------------------------------------------------------------------------------|
Gb)|---------------------------------------------------------------------------------------------------|
Db)|---------------------------------------------------------------------------------------------------|
Ab)|---------------------------------------------------------------------------------------------------|
Eb)|---------------------------------------------------------------------------------------------------|
/Half
eb)|-20--20--2019--19--1917--17--17--19--20--15~-------(19)/20--19--17--15--17--19--19(20)-----------|
Bb)|---------------------------------------------------------------------------------------------------|
Gb)|---------------------------------------------------------------------------------------------------|
Db)|---------------------------------------------------------------------------------------------------|
Ab)|---------------------------------------------------------------------------------------------------|
Eb)|---------------------------------------------------------------------------------------------------|

SOLO 2 (I think delay is a little reduced)
eb)|-------------------------------------------------------------------------------------------------------------------------|
Bb)|---/Fb-17h20p17---/Fb-17h20p17---/Fb-17h20p17---/Fb-17h20p17---/Fb-17h20p17---/Fb-17h20p17---/Fb-17h20p17---/Fb-17h20p17-|
Gb)|-19(21)---------19(21)---------19(21)---------19(21)---------19(21)---------19(21)---------19(21)---------19(21)---------|
Db)|-------------------------------------------------------------------------------------------------------------------------|
Ab)|-------------------------------------------------------------------------------------------------------------------------|
Eb)|-------------------------------------------------------------------------------------------------------------------------|
eb)|-------------------------------------------------------------------------------------------------------------|
Bb)|-20-/Full--------------------------r-(20)*Hold------------------------r-(20)--20-~~~~~---------------------|
Gb)|-19(21)-------------------------------(20)--------------------------------(19)--19-~~~~~---------------------|
Db)|---------------------------------------*Continue-releasing----------------------*Hit again-both str.---------|
Ab)|-------------------------------------------------------------------------------------------------------------|
Eb)|-------------------------------------------------------------------------------------------------------------|
eb)|-----22--------------20----------20--20~---17~-------------22--------------20----------20--20~---15~---------|
Bb)|-20------20------18------18----------------------------20------20------18------18----------------------------|
Gb)|-------------19--------------17------------------------------------19--------------17------------------------|
Db)|-------------------------------------------------------------------------------------------------------------|
Ab)|-------------------------------------------------------------------------------------------------------------|
Eb)|-------------------------------------------------------------------------------------------------------------|
|---3---|
eb)|------------------------------------------------13-13-13-12---------------------/-Hb-r--------------------------------|
Bb)|-----------------------------------------12-13--------------15-13-12----------12-(13)-(12)-10~~------------------------|
Gb)|-------------------12--------------12-14-----------------------------14-13-14------------------------------------------|
Db)|----------12-14-15-----12-12-14-15-------------------------------------------------------------------------------------|
Ab)|-12-14-15--------------------------------------------------------------------------------------------------------------|
Eb)|-----------------------------------------------------------------------------------------------------------------------|




Ваше мнение



Капча