tabbed by metal_militia16 (trevor D)
Tune down 1/2 step

Riff 1
e|---------------------------|
B|---------------------------|
G|-----4-----5---------------|
D|--------4---------4--4-----|
A|-7------------7---------7--|
E|-0------------0------------|
Riff 2
P.M.. ... . ... ... . ... . ... ...
e|--------------------------------------|
B|--------------------------------------|
G|--------------------------------------|
D|--------------------------------------|
A|--7-777-7-777------7-777-7-777--------|
E|--------------777--------------888----|
A.H. *
P.M.. ... . ... ... ... . . . ...
e|------------------------------------|
B|------------------------------------|
G|------------------------------------|
D|--------------999-777--------999-9--|
A|--7-777-7-777---------101010--------|
E|------------------------------------|
Main Riff
P.M. . . . . 3x Ending
e|---------------------------|-------------|
B|---------------------------|-------------|
G|---------------------------|-------------|
D|---------------------------|-------------|
A|----7/9-----7/9------------|--10--9---7--|
E|----5/7--0--5/7--0--0--0---|--8---7---5--|
Riff 3
P.M. . . . . . . . . . .
e|-----------------------------------------|
B|-----------------------------------------|
G|-----------------------------------------|
D|-----------------------------------------|
A|---5---7-7-7-7---7---7-7-7-7---7---7-7---|
E|-----------------------------------------|
P.M. . . . . . . . . . .
e|-----------------------------------------|
B|-----------------------------------------|
G|-----------------------------------------|
D|---5-------------------------------------|
A|-------7-7-7-7---7---7-7-7-7---7---7-7---|
E|-----------------------------------------|
P.M. . . . . . . . . . .
e|-----------------------------------------|
B|-----------------------------------------|
G|-----------------------------------------|
D|-----------------------------------------|
A|---5---7-7-7-7---7---7-7-7-7---7---7-7---|
E|-----------------------------------------|
P.M. . . . . . .
e|------------------------------|
B|------------------------------|
G|------------------------------|
D|---5-----------7--------------|
A|-------8-7-5------------------|
E|-------------------7---5---3--|
Harmony for Riff 3
P.M. . . . . . . . . . .
e|-----------------------------------------|
B|-----------------------------------------|
G|-----------------------------------------|
D|-----------------------------------------|
A|---9--10101010--10--10101010--10--1010---|
E|-----------------------------------------|
P.M. . . . . . . . . . .
e|-----------------------------------------|
B|-----------------------------------------|
G|-----------------------------------------|
D|---9-------------------------------------|
A|------10101010--10--10101010--10--1010---|
E|-----------------------------------------|
P.M. . . . . . . . . . .
e|-----------------------------------------|
B|-----------------------------------------|
G|-----------------------------------------|
D|-----------------------------------------|
A|---9--10101010--10--10101010--10--1010---|
E|-----------------------------------------|
P.M. . . . . . .
e|------------------------------|
B|------------------------------|
G|------------------------------|
D|---9----------10--------------|
A|------1210 9------------------|
E|------------------10---9---7--|
Interlude
Gtr I [clean]
P.M. . . . . . . . . . . . . . . .
e|------------------------------------------------|
B|------------------------------------------------|
G|------------------------------------------------|
D|-------9-----------9-----------9-----------9----|
A|----7-----7-----7-----7-----7-----7-----7-----7-|
E|-0-----------0-----------0-----------0----------|
P.M. . . . . . . . . . . . . . . .
e|------------------------------------------------|
B|------------------------------------------------|
G|------------------------------------------------|
D|------10----------10----------10----------10----|
A|----7-----7-----7-----7-----7-----7-----7-----7-|
E|-0-----------0-----------0-----------0----------|
P.M. . . . . . . . . . . . . . . .
e|------------------------------------------------|
B|------------------------------------------------|
G|------------------------------------------------|
D|-------9-----------9-----------9-----------9----|
A|----7-----7-----7-----7-----7-----7-----7-----7-|
E|-0-----------0-----------0-----------0----------|
P.M. . . . . . . . . . . . . . . .
e|------------------------------------------------|
B|------------------------------------------------|
G|------------------------------------------------|
D|-------7-----------7-----------7-----------7----|
A|----7-----7-----7-----7-----7-----7-----7-----7-|
E|-0-----------0-----------0-----------0----------|
Gtr II [clean]
e|---------------------------------|
B|---------------------------------|
G|---------------------------------|
D|---------9------------------10---|
A|------7------------------7-------|
E|---0------------------0----------|
e|---------------------------------|
B|---------------------------------|
G|---------------------------------|
D|---------9------------------7----|
A|------7------------------7-------|
E|---0------------------0----------|
3rd Gtr fade in:
e|---------------------------------|
B|---------7-------------------8---|
G|---------------------------------|
D|---------9------------------10---|
A|---------------------------------|
E|---------------------------------|
e|---------------------------------|
B|---------7------------------5----|
G|---------------------------------|
D|---------9------------------7----|
A|---------------------------------|
E|---------------------------------|




Ваше мнение



Капча