Artist: Iced Earth
Title: Melancholy Solo
Album: Something Wicked ... This Way Comes
Transcribed by: Stefanos Danakos
Email: [email protected]
Web site: http://www.metalprovider.com/sdanakos

eb)|-------------------------------------------------------------|
Bb)|---------------------------------------------------18-17~----|
Gb)|-----------------------------12-14-17-16~----17-19-----------|
Db)|--------------------12-14-15---------------------------------|
Ab)|-----------12-14-15------------------------------------------|
Eb)|--12-14-15---------------------------------------------------|
eb)|-----------------19--19h-20--17~---------14--15--17~----17p15p14-------|
Bb)|--18p17p15h17~---------------------------------------------------17~---|
Gb)|-----------------------------------------------------------------------|
Db)|-----------------------------------------------------------------------|
Ab)|-----------------------------------------------------------------------|
Eb)|-----------------------------------------------------------------------|
eb)|--19p15-----19p15-20p15-19p15-----19p15-20p15-19p15-----19p15-20p15--/22--20--19--20--19-17-17~-------|
Bb)|--------17--------------------17--------------------17------------------------------------------------|
Gb)|------------------------------------------------------------------------------------------------------|
Db)|------------------------------------------------------------------------------------------------------|
Ab)|------------------------------------------------------------------------------------------------------|
Eb)|------------------------------------------------------------------------------------------------------|
eb)|--17h20-19~--19h20p19h20p19-17h19p17h19p17-15h17p15h17p15-14h15p14h15p14--12~-------------------------|
Bb)|------------------------------------------------------------------------------------------------------|
Gb)|------------------------------------------------------------------------------------------------------|
Db)|------------------------------------------------------------------------------------------------------|
Ab)|------------------------------------------------------------------------------------------------------|
Eb)|------------------------------------------------------------------------------------------------------




Ваше мнение



Капча