Artist: Iced Earth
Title: Iced Earth 1st solo
Album: Iced Earth
Transcribed by: Stefanos Danakos
Email: [email protected]
Web site: http://www.metalprovider.com/sdanakos
AH AH AH
eb)|--------------------------14-15-17-19-17-15-15-17-15----19~------------|
Bb)|--15-13-12-13~---------------------------------------17----------------|
Gb)|------------------------------------------------------------16~--------|
Db)|---------------14~-----------------------------------------------------|
Ab)|-----------------------------------------------------------------------|
Eb)|-----------------------------------------------------------------------|
/Full
eb)|--15--20p15-15-19p15-15-17p15-15-19p15-15-17p15-15-19p17p15-19(21)19-----|
Bb)|---------------------------------------------------------------AH--------|
Gb)|-------------------------------------------------------------------------|
Db)|-------------------------------------------------------------------------|
Ab)|-------------------------------------------------------------------------|
Eb)|-------------------------------------------------------------------------|
/Half
eb)|--19h20p19h20-17h19p17h19--15(16)15--------------------------------|
Bb)|---------------------------16(17)16-------15-13-12-13~-------------|
Gb)|-------------------------------------------------------------------|
Db)|-------------------------------------------------------14~---------|
Ab)|-------------------------------------------------------------------|
Eb)|-------------------------------------------------------------------|
AH
eb)|--17p15p13-----17p15p13-----17p15p13-----17p15p13-13h15~----------|
Bb)|-----------17-----------17-----------17-----------------17~-------|
Gb)|------------------------------------------------------------------|
Db)|------------------------------------------------------------------|
Ab)|------------------------------------------------------------------|
Eb)|------------------------------------------------------------------|
AH AH AH
eb)|--------------_______-----------------------------------------------------------|
Bb)|------------------------------------------------------------15h17h18--15h17h18--|
Gb)|--12--10--9---9--10p-9---7--9--10---9-----15h17h19-15h17h19---------------------|
Db)|--------------------------------------------------------------------------------|
Ab)|--------------------------------------------------------------------------------|
Eb)|--------------------------------------------------------------------------------|
eb)|--15h17h19-15h17h19--17h19h21-17h19h20-19~~--------------------|
Bb)|---------------------------------------------------------------|
Gb)|---------------------------------------------------------------|
Db)|---------------------------------------------------------------|
Ab)|---------------------------------------------------------------|
Eb)|---------------------------------------------------------------|




Ваше мнение



Капча