Band: Iced Earth
Song: I Died For You
Tuning:Eb
Tab subm. by IL DUENDE
Intro (clean)
e|------------------------------|
B|------------------------------|
G|------0-----0---------0-------|
D|----2-----2---------4---4---4-|
A|------------------5-------5---|
E|--0-----0---------------------|
Distortion (chorus)
e|---------------------------------------|
B|---------------------------------------|
G|---------------------------------------|
D|-9------5-----7-5-----9------5-----4-4-|
A|-7------7-----5-7-----7------7-----5-5-|
E|-0--0-0---0-0---------0--0-0---0-0-----|
* * * * * * * *
Verse (clean)
e|------------------------------|
B|------------------------------|
G|------0-----0---------0-------|
D|----2-----2---------4---4---4-|
A|------------------5-------5---|
E|--0-----0---------------------|
Guitar 2 (over the above)
e|--7----5---------5--7----5-------|
B|------------8----------------7---|
G|---------------------------------|
D|---------------------------------|
A|---------------------------------|
E|---------------------------------|
Distortion (chor)
e|---------------------------------------|
B|---------------------------------------|
G|---------------------------------------|
D|-9------5-----7-5-----9------5-----4-4-|
A|-7------7-----5-7-----7------7-----5-5-|
E|-0--0-0---0-0---------0--0-0---0-0-----|
* * * * * * * *
Solo (repeat this twice, but leave off the last note the second time)
e|--15^^r--14-15-12-----15^^r--14-15---------------|
B|-----------------------------------15---13-12-13-|
G|-------------------------------------------------|
D|-------------------------------------------------|
A|-------------------------------------------------|
E|-------------------------------------------------|
notation:
^ = bend [ ^ = half, ^^ = whole, etc. ]
^r = bend and release
x = mute with fret-hand
* = mute with palm-hand
X = pick slide
h = hammer-on
p = pull-off
~ = vibrato
t = tap-on
/ = slide up
= slide down
h. = harmonics
ah = artificial harmonic
(9) = ghost note
tm = trem picking
tr = trill
This is a great song from the dark saga




Ваше мнение



Капча