iced earth
i died for you
e--------------------------------------------
a--------------------------------------------
g---------------0-------------0------------
d--------2----------------------------------
a---0----------------0---------------------
e-------------------------------------------
e-------------------------------------------
a-------------------------------------------
g---------------------0--------------------
d----------4---------------4----------4--
a----5---------5---------------5---------
e------------------------------------------


e---------------------------------------------------------------------------------
a---------------------------------------------------------------------------------
g---------------4-------2-------4---------------4-------2---------------------
d------4-------2-------0-------2------4--------2-------0-------4------------
a------2--------------------------------2--------------------------5------------
e---------------------------------------------------------------------------------
this is all of the parts to the song listen to the song for the correct
timing. any corrections or comments you can e-mail me at
[email protected]
also if you have tab for sword, forbidden, and exodus
see ya




Ваше мнение



Капча