Iced Earth: Enter the Realm
transcribed by: Russ Elton ([email protected])
FIND EVERY ICED EARTH SONG AND
THE MOST UPDATED VERSION OF THIS SONG AT:
The Frozen Palace
http://truemetal.org/icedearth/
Date last modified: 01/04/02

PLEASE DO NOT COPY THIS TAB TO ANOTHER SITE
WITHOUT AUTHORS' PERMISSION. THANK YOU.
Tuning: Eb
All riffs are done by acoustic guitars
Riff 1
Guitar 1
eb|---------2---------------2---------|
Bb|-------3---3-----------2---2-------|
Gb|-----4-------4-------4-------4-----|
Db|---4-----------4---4-----------4---|
Ab|-2---------------2---------------2-|
Eb|-----------------------------------|
eb|---------2---------------2-------|
Bb|-------3---3-----------2---2-----|
Gb|-----4-------4-------4-------4---|
Db|---4-----------4---4-------------|
Ab|-2---------------2-------------2-|
Eb|---------------------------------|
eb|---------1---------------1---------|
Bb|-------2---2-----------1---1-------|
Gb|-----3-------3-------3-------3-----|
Db|---3-----------3---3-----------3---|
Ab|-1---------------1---------------1-|
Eb|-----------------------------------|
eb|---------1---------------1-------|
Bb|-------2---2-----------1---1-----|
Gb|-----3-------3-------3-------3---|
Db|---3-----------3---3-------------|
Ab|-1---------------1-------------1-|
Eb|---------------------------------|
Guitar 2
eb|----------------------------------------|
Bb|----------------------------------------|
Gb|----------------------------------------|
Db|------4-5-4--4-5-4------4-5-4-2-4-5-4-2-|
Ab|-2--2--------------2--2-----------------|
Eb|----------------------------------------|
eb|----------------------------------------|
Bb|----------------------------------------|
Gb|----------------------------------------|
Db|------3-4-3--3-4-3------3-4-3-1-3-4-3-1-|
Ab|-1--1--------------1--1-----------------|
Eb|----------------------------------------|
Guitar 3 (Comes in the second time)
eb|----------------------------------------|
Bb|----------------------------------------|
Gb|------6-7-6--6-7-6------6-7-6-4-6-7-6-4-|
Db|-4--4--------------4--4-----------------|
Ab|----------------------------------------|
Eb|----------------------------------------|
eb|----------------------------------------|
Bb|----------------------------------------|
Gb|------5-6-5--5-6-5------5-6-5-3-5-6-5-3-|
Db|-3--3--------------3--3-----------------|
Ab|----------------------------------------|
Eb|----------------------------------------|
Riff 2
eb|---------3-------------2-3p2-2h3-|
Bb|-------3---3---------3-----------|
Gb|-----0-------0-----2-------------|
Db|---2-----------0-0---------------|
Ab|-3-------------------------------|
Eb|---------------------------------|
Riff 3
Guitar 1
eb|---------------------------------|
Bb|---------------------------------|
Gb|-----4-----5-----4-----2-----2---|
Db|-2-2---2-2---2-2---2-2---2-2---2-|
Ab|---------------------------------|
Eb|---------------------------------|
eb|---------------------------------|
Bb|---------------------------------|
Gb|-----2-----5-----4-----2-----2---|
Db|-3-3---3-3---3-3---3-3---3-3---3-|
Ab|---------------------------------|
Eb|---------------------------------|
Guitar 2
eb|---------7------------------8-----|
Bb|-------8----8------------10----10-|
Gb|-----9----------------10----------|
Db|---9---------------10-------------|
Ab|-7---------------8----------------|
Eb|----------------------------------|

notation:
^ = bend [ ^ = half, ^^ = whole, etc. ]
^r = bend and release
x = mute with fret-hand
* = mute with palm-hand
X = pick slide
h = hammer-on
p = pull-off
~ = vibrato
t = tap-on
/ = slide up
= slide down
h. = harmonics
ah = artificial harmonic
(9) = ghost note
tm = trem picking
tr = trill




Ваше мнение



Капча