Solo
|------------------------------------------------16--14--14-16-14-13-------------------|
|-----------17--15-16s19--18tr19--16-16-18--16----------------------14---14s019-19-19--|
|--------15----------------------------------------------------------------------------|
|---13---------------------------------------------------------------------------------|
|--------------------------------------------------------------------------------------|
|--------------------------------------------------------------------------------------|
|---16--14--14-16-14-13-------------------------|
|-----------------------14---14s19-19-19--------|*
|-----------------------------------------------|
|-----------------------------------------------|
|-----------------------------------------------|
|-----------------------------------------------|
|----------------16-----------------------------|
|--19--19--18-19----19-18-18s016-16-16-16-------|*
|-----------------------------------------------|
|-----------------------------------------------|
|-----------------------------------------------|
|-----------------------------------------------|
|---16--------16--------------------------------|
|------19---19--19-18--18s014-14--14-14---------|*
|-----------------------------------------------|
|-----------------------------------------------|
|-----------------------------------------------|
|-----------------------------------------------|
|-------------------------------------------------|
|---12---12-14-12-11---11s019-19-19---------------|*
|-----------------------------------15------------|
|-------------------------------------------------|
|-------------------------------------------------|
|-------------------------------------------------|
|----------------------16-14--14tr16--13-14-13-11-|
|---19--19-18-16-18-19----------------------------|*
|-------------------------------------------------|
|-------------------------------------------------|
|-------------------------------------------------|
|-------------------------------------------------|
|-------------------------------------------|
|----9b11---9--7—9----6--6-7-6----6---------|*
|------------------------------8----8-6-8---|
|-------------------------------------------|
|-------------------------------------------|
|-------------------------------------------|




Ваше мнение



Капча