Iced Earth - 1776
From the Album Something Wicked This Way Comes
Version 1.0 - September 2000
Transcribed by: Demon
For Questions, Comments, Newest Version, or Corrections contact
Demon: at [email protected]
Check Out Death Warp, With More Transcriptions On It:
http://tiger.towson.edu/~dalvis1
.. - palm mute / - slide up to
- slide down to ~ - vibrato
h - hammer on b - bend
p - pull off Suffixes for bend
ph - pinch harmonic
f - full bend h - half bend
* - see comment r - release t - tap bend
X - percussion mute ~ - vibrato bend
@ - slight palm mute () - ghost note, sustained note
Tune Gtr 1/2 step down
Iced Earth - 1776
Riff A1
|-------------------------------------------|
|-------------------------------------------|
|-------------------------------------------|Gtr I
|-----------9----------9--------------------|
|-----------7----------7--10---9h10p9-7--5--|
|---0--000-----0--000-----------------------|
. ... . ...
Riff A2
|-------------------------------------------|
|-------------------------------------------|
|-------------------------------------------|Gtr I
|-----------9----------9--------------------|
|-----------7----------7--10---9h10p9-7--5--|
|---0--000-----0--000-----------------------|
| . ... . ... |
| |
|-------------------------------------------|
|-------------------------------------------|
|-------------------------------------------|
|-----------9----------9---9---7--9-7-5--4--|Gtr II
|-----------7----------7--------------------|
|---0--000-----0--000-----------------------|
. ... . ... . . . . . .
Riff B
|--------------------------------------------------------|
|--------------------------------------------------------|
|--------------------------------------------------------|Gtr I
|-----------9----------9---------------------------------|
|-----------7----------7---10--9h10p9-7--5---3--2--------|
|---0--000-----0--000-----------------------------3--2---|
. ... . ...
|--------------------------------------------------------|
|--------------------------------------------------------|
|--------------------------------------------------------|
|-----------9----------9---9---7--9-7-5--4---------------|Gtr II
|-----------7----------7---------------------3--2--------|
|---0--000-----0--000------------------------------3--2--|
. ... . ... . . . . . .

Repeat:
Riff A2 two times,then riff B and then go to riff C.
Riff C
|---------------|---------------|---------------|-----------------|
|---------------|---------------|---------------|-----------------|
|---------------|---------------|---------------|-----------------|Both Guitars
|---------------|---------------|---------------|-----------------|
|---------------|---------------|---------------|-----------------|
|---0-000-0-0-0-|---0-000-0-0-0-|---0-000-0-0-0-|---0-000-0-0-0---|
. ... . . . . ... . . . . ... . . . . ... . . .
Riff D1
|--------------------------------------------------------------------------------------|
|--------------------------------------------------------------------------------------|
|--------------------------------------------------------------------------------------|Gtr
|-----------9----------9---------9---9-----7----5---------5------5--------5-555--7-777-| I
|-----------7----------7---------7---7-----5----3---------3------3--------3-333--5-555-|
|---0--000-----0--000------0--000-----000---000------0-000--0-000--0-000---------------|
| . ... . ... . ... .... .... . . ... . ... . ... . ... . ... |
| |
|--------------------------------------------------------------------------------------|
|--------------------------------------------------------------------------------------|
|--------------------------------------------------------------------------------------|Gtr
|---9----------7-----------5---------7-----4----4h5p4--2----4---2p0----2---------------| II
|--------------------------------------------------------------------------------------|
|--------------------------------------------------------------------------------------|

Riff D2
|--------------------------------------------------------------------------------------|
|--------------------------------------------------------------------------------------|
|--------------------------------------------------------------------------------------|Gtr
|-----------9----------9---------9---9-----7----5---------5------5--------5-555--7-777-|I
|-----------7----------7---------7---7-----5----3---------3------3--------3-333--5-555-|
|---0--000-----0--000------0--000-----000---000------0-000--0-000--0-000---------------|
| . ... . ... . ... .... .... . . ... . ... . ... . ... . ... |
| |
|--------------------------------------------------------------------------------------|
|--------------------------------------------------------------------------------------|
|--------------------------------------------------------------------------------------|Gtr
|---9----------7-----------5---------7-----4----4h5p4--2----4---2p0----2---------------|II
|--------------------------------------------------------------------------------------|
|--------------------------------------------------------------------------------------|
| |
| |
|--------------------------------------------------------------------------------------|
|--------------------------------------------------------------------------------------|
|--------------------------------------------------------------------------------------|Gtr
|---7----------6-----------4---------6-----4----2h4p2--0----2---0-4----2---------------|III
|--------------------------------------------------------------------------------------|
|--------------------------------------------------------------------------------------|
/
Repeat Riff D and then play riff E
Solo

Rhythm Under Guitar Solo (Riff E)
|--------------------------------------------------------------------------------------|
|--------------------------------------------------------------------------------------|
|--------------------------------------------------------------------------------------|Gtr I
|----9-----98--8-----87--7-----76--6-----65--5-----5-------------------------------|
|----7-----76--6-----65--5-----54--4-----43--3-----3--5-----5/7--7-----7/9--9----|
|-----------------------------------------------------------3-----3/5--5-----5/7--7----|
| |
| Solo |
|------------------------------------------------17--15--15-17-15-14-------------------|
|-----------17--16-17s20--19tr20--17-17-19--17----------------------15---15sl20-20-20--|
|--------16----------------------------------------------------------------------------|Gtr II
|---14---------------------------------------------------------------------------------|
|--------------------------------------------------------------------------------------|
|--------------------------------------------------------------------------------------|
|---17--15--15-17-15-14-------------------------|
|-----------------------15---15s20-20-20--------|*
|-----------------------------------------------|
|-----------------------------------------------|
|-----------------------------------------------|
|-----------------------------------------------|
|----------------17-----------------------------|
|--20--20--19-20----20-19-19sl17-17-17-17-------|*
|-----------------------------------------------|
|-----------------------------------------------|
|-----------------------------------------------|
|-----------------------------------------------|
|---17--------17--------------------------------|
|------20---20--20-19--19sl15-15--15-15---------|*
|-----------------------------------------------|
|-----------------------------------------------|
|-----------------------------------------------|
|-----------------------------------------------|
|-------------------------------------------------|
|---13---13-15-13-12---12sl20-20-20---------------|*
|-----------------------------------16------------|
|-------------------------------------------------|
|-------------------------------------------------|
|-------------------------------------------------|
|----------------------17-15--15tr17--14-15-14-12-|
|---20--20-19-17-19-20----------------------------|*
|-------------------------------------------------|
|-------------------------------------------------|
|-------------------------------------------------|
|-------------------------------------------------|
|-------------------------------------------|
|---10b12--10--8--10--7--7-8-7----7---------|*
|------------------------------9----9-7-9---|
|-------------------------------------------|
|-------------------------------------------|
|-------------------------------------------|

*Repeat Solo Rythm throughout the whole solo.
Repeat:
A1 A2 B
A2 A2 B
C
D2 D2
...and then play:

|--------------------------------------------------------------------------------------|
|--------------------------------------------------------------------------------------|
|--------------------------------------------------------------------------------------|Gtr
|-----------9----------9---------9---9-----7----5---------5------5--------5-555--7-777-|I
|-----------7----------7---------7---7-----5----3---------3------3--------3-333--5-555-|
|---0--000-----0--000------0--000-----000---000------0-000--0-000--0-000---------------|
| . ... . ... . ... .... .... . . ... . ... . ... . ... . ... |
| |
|--------------------------------------------------------------------------------------|
|--------------------------------------------------------------------------------------|
|--------------------------------------------------------------------------------------|Gtr
|---9----------7-----------5---------7-----4----4h5p4--2----4---2p0----2---------------|II
|--------------------------------------------------------------------------------------|
|--------------------------------------------------------------------------------------|
| |
| |
|--------------------------------------------------------------------------------------|
|--12---------10-----------8--------10-----7----7h8p7--5----7---53----5---------------|
|--------------------------------------------------------------------------------------|Gtr
|--------------------------------------------------------------------------------------|III
|--------------------------------------------------------------------------------------|
|--------------------------------------------------------------------------------------|
Rhythm Under Flute Solo I (Riff F)
|--------------------------------------------------------------------------|
|--------------------------------------------------------------------------|
|--------------------------------------------------------------------------|Gtr I
|---9-------98---8-----8-------7-------76---6-------------5--------------|
|---7-------76---6-----6-------5-------54---4-------------3--------------|
|--------------------------------------------------------------------------|
| |
| |
|------19-17-19------19-17-19------17-15-17------17-15-17-------15-14-15---|
|--17------------16------------15------------14-------------13-------------|
|--------------------------------------------------------------------------|Flute
|--------------------------------------------------------------------------|
|--------------------------------------------------------------------------|
|--------------------------------------------------------------------------|
|------------------------------------|
|------------------------------------|
|------------------------------------|Gtr I
|------------------------------------|
|-5-----------7-------9--------------|
|-3-----------5-------7--------------|
| |
| |
|----15-14-15------??????????????----|
|-12---------------------------------|
|------------------------------------|Flute arranged for guitar
|------------------------------------|
|------------------------------------|
|------------------------------------|
Rhythm Under Flute Solo II (Riff A1)
|---------------------------------------------------------------------------|
|---------------------------------------------------------------------------|
|---------------------------------------------------------------------------|Gtr I
|-------------9---------------9---------------------------------------------|
|-------------7---------------7----------10-------9h10p9----7--------5------|
|---0----000----------0--000------------------------------------------------|
| . ... . ... |
| |
|---19-15----------15-19-15--------------19-20-19-17-19-17-15-17-15-14-15-14|
|---------17----17---------17----17-----------------------------------------|
|------------16---------------16--------------------------------------------|
|---------------------------------------------------------------------------|
|---------------------------------------------------------------------------|
|---------------------------------------------------------------------------|

|
|--------------------------------------|
|--------------------------------------|
|--------------------------------------|Gtr I
|-------------9---------------9--------|
|-------------7---------------7--------|
|---0----000----------0--000-----------|
| . ... . ... |
| |
|---19-15----------15-19-15------------|
|---------17----17---------17----17----|
|------------16---------------16-------|
|--------------------------------------|
|--------------------------------------|
|--------------------------------------|
|------------------------------------------------------------------------|
|------------------------------------------------------------------------|
|------------------------------------------------------------------------|Gtr I
|----------------------------------------------------------------------2-|
|--10-------9h10p9----7--------5-------3--------2----------------------2-|
|--------------------------------------------------------3------2------0-|
| |
| |
|--19-20-19-17-19-17-15-17-15-14-15-14-12-14-12-10-12-10-8-10-8-7-8-7--0-|
|------------------------------------------------------------------------|
|------------------------------------------------------------------------|
|------------------------------------------------------------------------|
|------------------------------------------------------------------------|
|------------------------------------------------------------------------|

Check Out Death Warp, With More Transcriptions On It:
http://tiger.towson.edu/~dalvis1




Ваше мнение



Капча