ARTIST: I MOTHER EARTH (RADIO VERSION)
SONG: SUMMERTIME IN THE VOID
TABLATURE BY: BRAM GIELEN
I'm not positive that this is entirely accurate. This is my first time writing out a tab and I'm
only thirteen, but it should be relatively accurate.
h- hammer on
Riff 1: (intro, verse and chorus riff)
G---2---0h2--2--0h2--2---2--0h2--2--0h2--2---------- (repeat a number of times until pre-chorus,
D--------------------------------------------------- during which you play nothing)
A-0---0----------------0---0------------------------
E---------------------------------------------------
Riff 2: (guitar solo)
G---------0-----------5----------------------------- (repeat a couple of times until the third,
D-----0h2---------0h2------------------------------- and last, time the pre-chorus is sung)
A-0-0-------0-0-0-----------------------------------
E---------------------------------------------------
Riff 3: (last time pre-chorus is sung)
G----5-7-9--0-1-2----0------------------------------
D----------------------0----------------------------
A---------------------------------------------------
E-0----------------3--------------------------------
and that's it. email me at: [email protected] , or check out my band's website at:
http://moshbunker.cjb.net




Ваше мнение



Капча