From [email protected] Thu May 8 14:10:15 1997
Date: Mon, 21 Apr 1997 22:45:56 -0230
From: "Terry \"Bassman\" Thorne"
To: "[email protected]"
Subject: TAB: So Gently We Go by I Mother Earth
NOTE--------------------------------#
of the#
research.#
http://www.pconline.com/~smcarey/instab.html --#
Author/Artist: I Mother Earth
Title: So Gently We Go
Album: Dig
Transcribed by: Terry Thorne
bassline at start is A E ( 0 2 on A and D strings respectively)
This tab is for a guitar tuned down 1/2 step from standard, (ie. If
you're in st
andard play a fret higher)
Enjoy and obey....
-|----------------------------------------------------------------------------
-|------------2/4-------------------------------------------------------------
-|-3-/5-6^^^-------5^^^^------5h6p5---3--1/3-^^^^-----------------------------
-|----------------------------------------------------------------------------
-|----------------------------------------------------------------------------
-|----------------------------------------------------------------------------
G1
Intro
-|----------------------------------------------------------------------------
-|----------------------------------------------------------------------------
-|--3/5-6^^^------5^^^^-------------------------------------------------------
-|-------------6--------5h6--5--3--1--1---------------------------------------
-|----------------------------------------------------------------------------
-|----------------------------------------------------------------------------
G
1
-|----------------------------------------------------------------------------
-|----------------------------------------------------------------------------
-|----------------------------8-/---10-\--8-\--5------------------------------
-|----------------------------------------------------------------------------
-|----------------------------6-/---8---\-6-\--3------------------------------
-|----------------------------------------------------------------------------
G2 Fade in and fade
out
-|---------------------------------------------------|------------------------
-|------------------------------2/4--6\4-------------|------------------------
-|--3--5-6^^^^^----8\5-5-5^^^^^-----------5h6p5-\3-1/|-3-5-6^^^----5^---------
-|---------------------------------------------------|-----------6----6-5-31--
-|---------------------------------------------------|------------------------
-|---------------------------------------------------|------------------------
G1 Identical to
bar2
-|-12\------------------------|-------------------|---------------------------
-|-12\------------------------|-------------------|---------------------------
-|-12\-------5/6---6---x--6/8-|-5/6--6-x-6/8--5-5-|---------------------------
-|-12\------------------------|-------------------|---------------------------
-|----------------------------|-------------------|---------------------------
-|----------------------------|-------------------|---------------------------
G1 Muted p
f
-|----------------------------------------------------------------------------
-|-------------6\4-4----------------------------------------------------------
-|-5/6-6-x-6/8--------5h6p5-\3\1/3--------------------------------------------
-|----------------------------------------------------------------------------
-|----------------------------------------------------------------------------
-|----------------------------------------------------------------------------
G1
-|----------------------------------------------------------------------------
-|---------------------9--9--7-----------/-9-----9---7----h9------------------
-|--5/6-6-x-6/8--8\----8--8--8--8\6/8----/-8-----8---8------------------------
-|----------------------------------------------------------------------------
-|----------------------------------------------------------------------------
-|----------------------------------------------------------------------------
G1 f (loud)
mp(softer)
-|----------------------------------------------------------------------------
-|----------------------------------------------------------------------------
-|---------8----8^^/10b11r10\8^^----------------------------------------------
-|----------------------------------------------------------------------------
-|--6-h-8---------------------------------------------------------------------
-|----------------------------------------------------------------------------
G1
-|----------------------------------------------------------------------------
-|---------------------------------------11-----------------------------------
-|-------------------------------8/10\8---------------------------------------
-|----------------------------------------------------------------------------
-|----------------------------------------------------------------------------
-|----------------------------------------------------------------------------
G2 Again fade in and
out
-|-----------6----------|--|-----------5-------|------------------------------
-|----------------------|--|-------------------|------------------------------
-|------8--------8---8--|x2|-----7---------7---|------------------------------
-|---------8-------8----|--|--------7--------7-|-x2---------------------------
-|---6------------------|--|--5----------------|------------------------------
-|----------------------|--|-------------------|------------------------------
G1 D Verse clean
Db
-|--4---4----------|-------4---------|----------3-----------------------------
-|--4------4-------|----------4----4-|-3-h-4----4--4--------------------4-----
-|--6---------6----|-----------------|-3-h-5----5----5------------------------
-|--6--------------|-------------6---|-3-h-5----5-----------------1--3--------
-|--4--------------|--4--------------|-3--------3-----------1-1/6-------------
-|-----------------|-----------------|------------------3/6-------------------
G1 C Bm repeat sim
w/lyrics
-|----------------------------------------------------------------------------
-|---------------------------------------------------------------10^^^-8------
-|----------------------------------------------------------------------------
-|----------------------------------------------------------------------------
-|----------------------------------------------------------------------------
-|----------------------------------------------------------------------------
G2
mf
-|--------------------------|-------------------------------------------------
-|--------------------------|-------------------------------------------------
-|---------------6----------|--3-/8--x-8/10--10^^^-8^^^--3^^^-----------------
-|----5--3----8------x------|---------------------------------3\1^^-----------
-|-------------------x------|-------------------------------------------------
-|--6-----------------------|-------------------------------------------------
G1
laughter...etc/
-|---------------------------------9-h-11--\-|--------------------------------
-|---------------------------------9---------|--------------------------------
-|---3-/8--x-8/10--8\6^^----8\6-6------------|--------------------------------
-|-----------------------8-------------------|--------------------------------
-|-------------------------------------------|--------------------------------
-|-------------------------------------------|--------------------------------
G1 p
pp
-|----------------------------------------------------------------------------
-|-----------/11^^h13---------------------------------------------------------
-|-----8-h10---------12\10x-10\8--8-------------------------------------------
-|-/10-------------------------------10^^^------------------------------------
-|----------------------------------------------------------------------------
-|----------------------------------------------------------------------------
G1
-|----------------------------------------------------------------------------
-|----------------------------------------------------------------------------
-|--15/17--18^^^--18/20-17--15/18-17--15--13/15^^^^---------------------------
-|----------------------------------------------------------------------------
-|----------------------------------------------------------------------------
-|----------------------------------------------------------------------------
G1
w/wah
-|----------------------------------------------------------------------------
-|----------------------------------------------------------------------------
-|--15/17--18^^^-----17^^^----13/15^^^^---------------------------------------
-|----------------18------------------------------------------------5^^^^-----
-|-----------------------------------------------------------3-5--6-----------
-|--------------------------------------------------3-3h4h6-------------------
G1
clean
--|---------------------------------------------------------------------------
--|----------------------------16p15-18^^--16/18/20b21r-----------------------
--|---------------------------------------------------------------------------
--|---------------------------------------------------------------------------
--|---------------------------------------------------------------------------
--|---------------------------------------------------------------------------
G2
--|-----------------6--|---|----5--|---|--4--|---|--3-----|-------------------
--|-----------------8--|---|----7--|-x2|--6--|-x2|--3-h5--|-------------------
--|-----------------8--|---|----7--|---|--6--|---|--3-h5--|-------------------
--|-----------------8--|-x2|----7--|---|--6--|---|--3-h5--|-x2----------------
--|-----------------6--|---|----5--|---|--4--|---|--3-----|-------------------
--|--------------------|---|-------|---|-----|---|--------|-------------------
G1 Verse2 clean
w/wah
-|----------------------------------------------------------------------------
-|----------------------------------------------------------------------------
-|----------------------------------------------------------------------------
-|----------------------------------------------------------------------------
-|----------------------------------------------------------------------------
-|----------------------------------------------------------------------------
G2 play verse 1
rythym
-|----------------------------------------------------------------------------
-|----------------------------------------------------------------------------
-|----------------------------------------------------------------------------
-|----------------------------------------------------------------------------
-|----------------------------------------------------------------------------
-|----------------------------------------------------------------------------
G3 random slides w/volume
swells
-|------------------|------------------------------------------|--------------
-|---------------6--|----------------------------------------x-|--------------
-|------------------|--3/-8-x-8/10-10^^^-8^^-5\3^^-----------x-|--------------
-|-------5\3---8---x|-------x------------------------3\1^^---x-|--------------
-|-----------------x|------------------------------------------|--------------
-|----6-------------|------------------------------------------|--------------
G1
e
-|-----------------------------------------|----------------------------------
-|-----------------------------------------|----------------------------------
-|--3/8-x-8/10--8h10p8-----8------10p8---8-|----------------------------------
-|------x------------------8------8------8-|----------------------------------
-|----------------------10-----10----------|----------------------------------
-|-----------------------------------------|----------------------------------
G1
-|----------------------------------------------------|-----------------------
-|------------------8h11^^-p8^^-----------------------|-----------------------
-|--3/8-x-8/10-8^^----------------8h10^^-p8^^---------|-----------------------
-|------x--------------------------------------10-8-10|-----------------------
-|----------------------------------------------------|-----------------------
-|----------------------------------------------------|-----------------------
G1
-|---------------------------------------------------|------------------------
-|---------------------------------------------------|------------------------
-|---------------------------10^^^^-8^^^^-5^^^^^-3^^^|------------------------
-|---------------------------------------------------|------------------------
-|---------------------------------------------------|------------------------
-|---------------------------------------------------|------------------------
G2
pp
-|---------------------------------|---------------------|--------------------
-|---------------------------------|---------------------|--------------------
-|--3/5-6-/8-\5--5/6\5-\3---\1--/3-|-3/5-/6----5---------|--------------------
-|---------------------------------|---------6---6--/8-\5|--------------------
-|---------------------------------|---------------------|--------------------
-|---------------------------------|---------------------|--------------------
G1 swell vol in and out for each
note
--|--------------------------|------------------------------------------------
--|--------------------------|------------------------------------------------
--|-----8--8-/10--10-8-8---\3|----8-8/10-10/12\8-8---3------------------------
--|--/8----------------------|-/8-----------------------3\1-------------------
--|--------------------------|------------------------------------------------
--|--------------------------|------------------------------------------------
G1 quickly slide to
12
--|---------------------|-----------------------------------------------------
--|---------------------|-----------------------------------------------------
--|-----8-8/10-10-\8-8--|----8-/10-10-8-6-5-5h6p5\3-1-3-3---------------------
--|--/8-----------------|-/8--------------------------------------------------
--|---------------------|-----------------------------------------------------
--|---------------------|-----------------------------------------------------
G1
s.h
-|----------------------------------------------------------------------------
-|----------------------------------------------------------------------------
-|------------------------------------------8-8-8-8-8-8-8-8-8-8-8-8-8---------
-|------------------------------------------8-8-8-8-8-8-8-8-8-8-8-8-8---------
-|------------------------------------------6-6-6-6-6-6-6-6-6-6-6-6-6---------
-|----------------------------------------------------------------------------
G2 heavy muting and vol
swell
-|---------|-----|------------------------------------------------------------
-|----8----|--6--|------------------------------------------------------------
-|----8----|--6--|------------------------------------------------------------
-|----8----|--6--|--x6--------------------------------------------------------
-|----6----|--4--|------------------------------------------------------------
-|---------|-----|------------------------------------------------------------
G1 and
G2
--|--------------------------------------------------------------|------------
--|--------------------------------------------------------------|------------
--|-6/8-8^^^-8/12^^^-/13-12h13p12-10-8-/13-12-\10-\8-8/10-12\8-8-|-x2---------
--|--------------------------------------------------------------|------------
--|--------------------------------------------------------------|------------
--|--------------------------------------------------------------|------------
G1 w/G2 paying above
rhythym
-|----------------------------------------------------------------------------
-|----------------------------------------------------------------------------
-|---8-8-8-8-8-8--------------------------------------------------------------
-|---8-8-8-8-8-8--------------------------------------------------------------
-|---6-6-6-6-6-6--------------------------------------------------------------
-|----------------------------------------------------------------------------
G1 vol swell followed by same rhythym as above
x1
-|----------|-----------------------------------------------------------------
-|---6------|--4--------------------------------------------------------------
-|---6------|--4--------------------------------------------------------------
-|---6------|--4--------------------------------------------------------------
-|---4------|--2--------------------------------------------------------------
-|----------|-----------------------------------------------------------------
G1 and return to above
rhythym
-|----------------------------------------------------------------------------
-|----------------------------------------------------------------------------
-|----------------------------------------------------------------------------
-|----------------------------------------------------------------------------
-|----------------------------------------------------------------------------
-|----------------------------------------------------------------------------
G1 Maybe I played my
part.....
-|-------|------|------|------|-----------------------------------------------
-|-8-----|---6--|--4---|--6---|--8-8---8-8------------------------------------
-|-8-----|---6--|--4---|--6---|--8-8---8-8------------------------------------
-|-8-----|---6--|--4---|--6---|--8-8---8-8------------------------------------
-|-6-----|---4--|--2---|--4---|--6-6---6-6------------------------------------
-|-------|------|------|------|-----------------------------------------------
G2
repeat
-|----------------------------------------------------------------------------
-|----------------------------------------------------------------------------
-|---4-----6----8-------------------------------------------------------------
-|---4-----6----8-------------------------------------------------------------
-|---2-----4----6-------------------------------------------------------------
-|----------------------------------------------------------------------------
G2 outside in....
in.......
--|-------------------------------------------------|-------------------------
--|-------------------------------------------------|-------------------------
--|---------------------------------6^^-6---6-6^^^^-|-------------------------
--|-------------------------------------------------|-------------------------
--|-------------------------------------------------|-------------------------
--|-------------------------------------------------|-------------------------
G1
--|---------------------------------------------------------------------------
--|---------------------------------------------------------------------------
--|---------------------------------------------------------------------------
--|-1-/8-x-8/10-10^^^-8^^--/10-13p10---8\-1-----------------------------------
--|---------------------------------------------------------------------------
--|---------------------------------------------------------------------------
G1 5;35
ff
--|---------------------------------------------------------------------------
--|---------------------------------------------------------------------------
--|------8-8h10p8h10--b11---8h10p8-10b11--------------------------------------
--|--10-----------------------------------------------------------------------
--|---------------------------------------------------------------------------
--|---------------------------------------------------------------------------
G1 slow
bend
--|-------------------------11p8----------------------------------------------
--|-----------------11p9p8--------11-x--11p8----------------------------------
--|-------------------------------------------11p10-/10-8^^-------------------
--|-----8--8-10p8-------------------------------------------------------------
--|--10-----------------------------------------------------------------------
--|---------------------------------------------------------------------------
G1
-|-----------------------------11h13p11---------------------------------------
-|---------------------9\8-----11--------/11-9^^--h11-------------------------
-|----------------------------------------------------------------------------
-|--5h6p5\3\1-------8---------------------------------------------------------
-|--------------4/6-----------------------------------------------------------
-|----------------------------------------------------------------------------
G1
-|----------------------------------------------------------------------------
-|--8-8-8-8-8-8-8-------------------------------------------------------------
-|--8-8-8-8-8-8-8------12-/13-/15^^-----10b112r10-p8h10p8---\5----------------
-|--8-8-8-8-8-8-8-------------------------------------------------------------
-|----------------------------------------------------------------------------
-|----------------------------------------------------------------------------
G1 p slow bend w/ vol
swell
-|----------------------------------------------------------------------------
-|-------------------------------/13-11-13------------------------------------
-|-8-8h10-8h10-8h10-8h10-8-------------------xx-13-11--10---------------------
-|-------------------------------------------xx-13-11--10---------------------
-|----------------------------------------------------------------------------
-|----------------------------------------------------------------------------
G1 mp
ff
--|-----------------------------------11-------11--------11-^^----------------
--|---------------------------------------------------------------------------
--|-12-13-15^^--12h13p12h13^^^--12-13----12-13----12--13----------------------
--|---------------------------------------------------------------------------
--|---------------------------------------------------------------------------
--|---------------------------------------------------------------------------
G1
--|---------------------------------------------------------------------------
--|---------------------------------------------------------------------------
--|-13-13-\10----------------13b15--------13b15----13b15^^--------------------
--|--------------------------------13-15--------13----------------------------
--|---------------------------------------------------------------------------
--|---------------/13^^^------------------------------------------------------
G1 p begin
fade
--|--16b18-16-14-16-16b18-16--------------------------------------------------
--|--------------------------16-16^^^-----------------------------------------
--|---------------------------------------------------------------------------
--|---------------------------------------------------------------------------
--|---------------------------------------------------------------------------
--|---------------------------------------------------------------------------
G1 et voila! C'est
fini!
--
Terry Thorne \
[email protected] \ "If There's glory in
9 Lingard Place \ miracles, it's that they're
Bishop's Falls, NF, CA \ reversible" Gord Downie
A0H-1C0 \




Ваше мнение



Капча