ARTIST: I Mother Earth
SONG: No Coma
ALBUM: Quicksilver Meat Dream
Acoustic Intro (0:00-0:16)
|--------------------------------------|
|--------------------------------------|
|--------------------------------------|
|-------14----12-----------------------|
|----------------14----14--14-14s12-12-|
|-10s12----12-------12-----12-12s10-10-|

|------------------------------------------|
|------------------------------------------|
|----------------------0-------------------|
|--------------12------0-9----9s10s9-9-9-9-|
|-10-(10)-(10)-10-(10)-0-9----9s10s9-9-9-9-|
|--8---8----8---8---8----7--7--------7-7-7-|

|-----------------------------|-------------|
|-----------------------------|-------------|
|-----------------------------|-------^0----|
|-9s14-14-14----14------14-12-|-10----^9----|
|-9s14-14-14----14------14-12-|-10----^9----|
|-7s12-12-12-12-12------12-10-|--8----^7----|

Palm-muted riff w/distortion (1:23-1:38)
|-------------------------------------------------|
|-------------------------------------------------|
|-------------------------------------------------|
|-------14----12----------------------------------|
|----------------14----14----12-------12----12-14-|
|-10s12----12-------12----12----12-12----12-------|

|-------------------------------------------------|
|-------------------------------------------------|
|-------------------------------------------------|
|-------14----12-------16----12-------------------|
|----------------14-------------------14----12-14-|
|-12-12----12-------12----12----12-12----12-------|

|-------------------------------------------------|
|-------------------------------------------------|
|-------------------------------------------------|
|-------14----12----------------------------12----|
|----------------14----14----12-------12-14----14-|
|-12-12----12-------12----12----12-12-------------|

|------------------------------------------|
|------------------------------------------|
|------------------------------------------|
|---------14----12-----------5-5-5/-9-9-9--|
|-(14)-------------14----14-5-5-5/-9-9-9--|
|------12----12-------12-----3-3-3/-7-7-7--|

Chorus chords (in order of appearance)
-some positions may be different
|----------------|
|----------------|
|---5-4----------|
|-2-5-4-5-4-9----|
|-2-3-2-5-2-9----|
|-0-3-2-3-2-7----|
------------------------------------------------------------------------------------
- Alternate Version Of Intro/Verse -
| --------------------------------------------------------------- |
| --------------------------------------------------------------- |
| --------9-----7-------------------------------7---------------- |
| ----------------9---9------7---9------------------------7------ |
| -5/(7)----7-------7-------------------------------------------- |
| --------------------------------------(8)------------------(7)- |
| ----------------------------------------------- |
| --------------------------------------------0-- |
| --------------------------------------------4-- |
| ----------------7-7-7--------9-9------------4-- |
| -7/9----------------------7-----------------2-- |
| ----------------------------------------------- |

Tabbed by: Jon Duch (cuz he is so cool and sexy and is a wicked guitar player)




Ваше мнение



Капча