From [email protected] Sun Mar 9 21:14:10 1997
Date: Fri, 7 Mar 1997 18:09:36 +0000
From: Dave Sollows
To: [email protected]
Subject: tabs-imotherearth,levitate
------- Forwarded Message Follows -------
Date: Wed, 26 Feb 1997 22:17:16 -0400
From: Sollows Family
Reply-to: [email protected]
To: [email protected]
Subject: tabs
LEVITATE
tabbed by Dave Sollows
standard tuning
()-palm muting
/-slide up
\-slide down
x-scratch
b-bend
rb-release bend
h-hammer on
p-pull off
You're gonna have to really listen to this song to play it but sounds
some thing like this.
main riff riff 1
d7 or d5
e----------------x-------x---)------------------------------------------
b----------------3-------x---)------------------------------------------
g----------------5-------x---)------------------------------------------
d----------------4-------7---)----------------------10b-----------------
a--5-5-5-3-6-5---5-------5---)-----10h12-12-12p10-12---12-10h12-12-12p10
e----------------x-------x---)------------------------------------------
d5
e------------------------)--------------x-------------------------------
b----10-12-12b-rb-12-----)--------------3-----------------------------12b
g----10-12-12b-rb-12-----)--------------5-----------------------10-12-12b
d--12---------------10~~~)--------------4--10h12-12-12p10--10-12--------
a-------------------)----)--5-5-5-3-6-5-5----------------12-------------
e-------------------)----)--------------x-------------------------------
a9
e---------------------------------------------------------(12-12-12-
b--re12-10b-------------------------12-12b-re12-----------(12-12-12-
g--re12-10b----------------------10-12-12b-re12-10-12b-10b(12-12-12-
d-----------10h12-12-12p10--10-12-------------------------(11-11-11-
a-------------------------12------------------------------(12-12-12-
e---------------------------------------------------------(x--x--x--
listen to that part to get it right
d f e d
e-----------------)repeat(-------------------------------------------
b-----------------)as (-------------------------------------------
g--10h12-10-------)needed(--6/7-7-7-7-7-7-7-10-10-10-9-9-9-7-7-7-4-5-
d----------12-10--) (-------------------------------------------
a---------------12) (--4/5-5-5-5-5-5-5--8--8--8-7-7-7-5-5-5-2-3-
e-----------------) (-------------------------------------------
solo
e---)----------------------------------------------------------------
b---)----5-5----------10-8h10p8\5---------------------8-8h10----8----
g---)--7b---7bre7-5-5------------7-7bre7-5-----5-7-7/9------7~~--5b--
d--4)--------------7----------------------7-7-7-------------------7~~
a---)----------------------------------------------------------------
e--6)----------------------------------------------------------------
e-------------------------------)that's about it, it is a bitch to
b-------------------------------)play but just listen to the album
g-------------------------------)and it should be ok.
d--7------5\7-5-7\9-10bre9-10\12)
a---5-5h7-----------------------)
e-------------------------------)
it has a hard to follow solo and a few hard licks in it. If any thing is
screwed up on it then you can e-mail me at [email protected]
thanx.
DAVE THE
GREAT!!!




Ваше мнение



Капча