All Awake - Bass Tab
By I Mother Earth
>From the album Blue Green Orange
Tabbed by Sam Buchta ([email protected])
Intro
G|------------|------------|------------|
D|------------|------------|------------|
A|-drum intro-|------------|------------|
E|------------|--0---------|--0---------|
Verse and Chorus
G|-------------------|
D|-------------------|
A|----7-7---5--5---5-|
E|--0-----7------6---|
Intro to Interlude
G|------------------------|
D|------------------------|
A|----7-7---5-5-5-5--5h7-|
E|--0-----7---------------|
Interlude
G|-------------------------------|
D|-----/14---------/12-12--------|
A|---------14------------12-11--|
E|--0-----------0----------------|
The other tab by Benny had some errors that i could tell, wrong octaves, etc,
this one sounds more correct to me. It's all original by me, actually tab
out long before. The A# in the verse/chorus part sounds right to me but if
you don't like it just play it as a B :P Just repeat the parts as necessary,
listen to the song to get the rhythm
That's it




Ваше мнение



Капча