Author/Artist: Hypocrisy
Title: To Escape Is To Die
Album: Penetralia
Transcribed by: JRS
Email: [email protected]

(C-F-A#-D#-G-C)
(listen to song for structure)
------------------------------------------------------------------------------
------------------------------------------------------------------------------
------------------------------------------------------------------------------
------------------------------------------------------------------------------
------------------------------------------------------------------------------
--000-000-000-000-000-000-000-000-000-000-000-000-----------------------------
xxx xxx xxx xxx xxx xxx xxx xxx xxx xxx xxx xxx #INTRO#

------------------------------------------------------------------------------
------------------------------------------------------------------------------
------------------------------------------------------------------------------
----------------------------------3---2---------------------------------------
----------------------------------1---0---------------------------------------
--000-000-000-000-000-000-000-000---------------------------------------------
xxx xxx xxx xxx xxx xxx xxx xxx

------------------------------------------------------------------------------
------------------------------------------------------------------------------
------------------------------------------------------------------------------
--------------------------------------5---------------------------------------
----------------------------------3---3---------------------------------------
--000-000-000-000-000-000-000-000-1---3---------------------------------------
xxx xxx xxx xxx xxx xxx xxx xxx #1#

------------------------------------------------------------------------------
------------------------------------------------------------------------------
------------------------------------------------------------------------------
--2---------------------------------------------------------------------------
--2---------------------------------------------------------------------------
--0---------------------------------------------------------------------------
#FILL#

------------------------------------------------------------------------------
------------------------------------------------------------------------------
------------------------------------------------------------------------------
------------------------------------8-8-8-8-8-8-------------------------------
--2-----2-----2-----3---2-----2-----6-6-6-6-6-6-------------------------------
--0-000-0-000-0-000-1---0-000-0-000-------------------------------------------
x xxx x xxx x xxx x xxx x xxx #2A#

------------------------------------------------------------------------------
------------------------------------------------------------------------------
------------------------------------------------------------------------------
------------------------------------8-8-8-8-8-8-------------------------------
--------------------3---------------6-6-6-6-6-6-------------------------------
--00000000000000000-1---00000000000-------------------------------------------
xxxxxxxxxxxxxxxxx xxxxxxxxxxx #2B#

------------------------------------------------------------------------------
------------------------------------------------------------------------------
------------------------------------------------------------------------------
------------------------------------------------------------------------------
---77777777777777776666666666666666777777777777777788888888-------------------
-----------------------------------------------------------88888888-----------
#3#

------------------------------------------------------------------------------
------------------------------------------------------------------------------
------------------------------------------------------------------------------
--9-2-3-4------------------9-2-3-4--------------------------------------------
--7-0-1-2------------------7-0-1-2--------------------------------------------
----------0000000000000000---------3333333311111111---------------------------
xxxxxxxxxxxxxxxx xxxxxxxxxxxxxxxx #4#

------------------------------------------------------------------------------
------------------------------------------------------------------------------
------------------------------------------------------------------------------
--98------------------76---54----------------------------------------------
--76------------------54---32----------------------------------------------
------0000000000000000--------------------------------------------------------
xxxxxxxxxxxxxxxx #5#

------------------------------------------------------------------------------
------------------------------------------------------------------------------
------------------------------------------------------------------------------
------------------------------------------------------------------------------
--------------------------8888888888888888555555555555555577777777------------
--000000000000000000000000----------------------------------------------------


------------------------------------------------------------------------------
------------------------------------------------------------------------------
------------------------------------------------------------------------------
------------------------------------------------------------------------------
------------------88888888888888885555555555555555----------------------------
--0000000000000000------------------------------------------------------------
#6#

------------------------------------------------------------------------------
------------------------------------------------------------------------------
------------------------------------------------------------------------------
------------------------------------------------------------------------------
------------------------------------------------------------------------------
--7777777777777777777777777777777766666666666666666666666666666666------------


------------------------------------------------------------------------------
------------------------------------------------------------------------------
------------------------------------------------------------------------------
------------------------------------------------------------------------------
------------------------------------------------------------------------------
--7777777777777777777777777777777788888888888888883333333333333333------------
#7#

------------------------------------------------------------------------------
------------------------------------------------------------------------------
------------------------------------------------------------------------------
-------------------------------------------8----------------------------------
-----------------------3-------------------6----------------------------------
--00000000000000000000-1------000000000000------------------------------------
xxxxxxxxxxxxxxxxxxxx xxxxxxxxxxxx #END#

------------------------------------------------------------------------------
------------------------------------------------------------------------------
------------------------------------------------------------------------------
------------------------------------------------------------------------------
------------------------------------------------------------------------------
------------------------------------------------------------------------------


------------------------------------------------------------------------------
------------------------------------------------------------------------------
------------------------------------------------------------------------------
------------------------------------------------------------------------------
------------------------------------------------------------------------------
------------------------------------------------------------------------------




Ваше мнение



Капча