HYPOCRISY - THE BEGINING OF THE END
From the Album: DESTROYS WACKEN (Bonus Track)
Copyright: NUCLEAR BLAST 1999
Version 2.0 - January 2002
Transcribed by: James Williams (INVERTED)
Version 2.0 by: Mikko Leimu
For Questions, Comments, Newest Version, or Corrections contact
Inverted: at [email protected]
Mikko: at [email protected]
Check Out Death Warp, With More Transcriptions On It:
http://www.sorrowsend.com/deathwarp
. - Palm mute
h - Hammer on
p - Pull off
- Slide down
/ - Slide up
Tune Gtr to A (A,D,G,C,F,a)
Hypocrisy - The Beginning Of The End
Riff A.1
|---------------------------------|---------------------------------|
|---------------------------------|---------------------------------|
|-------------8h9-----------------|-------------7h8-----------------|Gtrs
|-----7h8-------------7h8-----5h7-|-----7h8-------------7h8-----6h7-|I&II
|-0-0-----0-0-----0-0-----0-0-----|-0-0-----0-0-----0-0-----0-0-----|
|---------------------------------|---------------------------------|
. . . . . . . . . . . . . . . .
Repeat Riff A.1
Riff A.2
|---------------------------------|---------------------------------|
|-------------9h10----------------|-------------9h10----------------|
|-----9h10------------9h10----7h9-|-----9h10------------9h10----8h9-|Gtr
|---------------------------------|---------------------------------| I
|-0-0-----0-0-----0-0-----0-0-----|-0-0-----0-0-----0-0-----0-0-----|
|---------------------------------|---------------------------------|
| . . . . . . . . | . . . . . . . . |
| | |
|---------------------------------|---------------------------------|
|---------------------------------|---------------------------------|
|-------------8h9-----------------|-------------7h8-----------------|Gtr
|-----7h8-------------7h8-----5h7-|-----7h8-------------7h8-----6h7-| II
|-0-0-----0-0-----0-0-----0-0-----|-0-0-----0-0-----0-0-----0-0-----|
|---------------------------------|---------------------------------|
. . . . . . . . . . . . . . . .
Repeat Riff A.2 (3 times)
1. verse: Riff A.2 (4 times)
Riff B.1
|--------------------------------|--------------------------------|
|--------------------------------|--------------------------------|Gtr
|--------------------------------|--------------------------------| I
|--------------------------------|-----------------------------1--|
|-0-0-0-0-6h7-0-0-5h6-0-0-2h3-1--|-0-0-0-0-6h7-0-0-5h6-0-0-1h2----|
|--------------------------------|--------------------------------|
| | |
|--------------------------------|--------------------------------|
|--------------------------------|--------------------------------|Gtr
|--------------------------------|--------------------------------| II
|--------------------------------|--------------------------x----|
|--------------------------------|--------------------------x----|
|--------------------------------|--------------------------x----|
Riff B.2
|--------------------------------|--------------------------------|
|--------------------------------|--------------------------------|Gtrs
|--------------------------------|--------------------------------|I&II
|--------------------------------|-----------------------------1--|
|-0-0-0-0-6h7-0-0-5h6-0-0-2h3-1--|-0-0-0-0-6h7-0-0-5h6-0-0-1h2----|
|--------------------------------|--------------------------------|
Repeat Riff B.2 (5 times)
Riff C
|-----------------------|------------------------|
|-----------------------|------------------------|
|-------9----8----------|-------9---10---------8-|Gtrs
|-------7----6----9-8-7-|-------7----8----9-10-6-|I&II
|-0-000----0----0-7-6-5-|-0-000----0----0-7-8----|
|-----------------------|------------------------|
. ... . . . . . . ... . . . . .
Repeat Riff C
Riff B.2 (4 times)
Riff D
|---------------------------|-----------------------|
|---------------------------|-----------------------|
|-------------10-9-7--------|-----------------------|Gtr
|-7-777-7-777--------10-9-7-|-6-666-667-------------| I
|---------------------------|-----------7-777-8-888-|
|---------------------------|-----------------------|
| . ... . ... | . ... ... ... |
| | |
|---------------------------|-----------------------|
|---------------------------|-----------------------|
|---------------5-4-2-------|-----------------------|Gtr
|-2-222--2-222--------5-4-2-|-1-111-112-------------| II
|---------------------------|-----------2-222-3-333-|
|---------------------------|-----------------------|
. ... . ... . ... ... ...
|---------------------------|-------------------------|
|---------------------------|-------------------------|
|-------------10-9-7--------|-------------------------|Gtr
|-7-777-7-777--------10-9-7-|-6-666-------------------| II
|---------------------------|-------7-777-8-888-7-777-|
|---------------------------|-------------------------|
| . ... . ... | |
| | |
|---------------------------|-------------------------|
|---------------------------|-------------------------|
|---------------5-4-2-------|-------------------------|Gtr
|-2-222--2-222--------5-4-2-|-1-111-------------------| II
|---------------------------|-------2-222-3-333-2-222-|
|---------------------------|-------------------------|
. ... . ... ... ... ... ...
Repeat Riff D
Riff E (chorus)
|------------------|------------------|------------------|------------------
---|
|------------------|------------------|------------------|------------------
---|
|------------------|------------------|------------------|------------------
---|Gtrs
|-7----10--9--7----|-7----10--9--6----|-7----10--9--7----|-7----10--9--6----
x-|I&II
|-7----10--9--7----|-7----10--9--6----|-7----10--9--7----|-7----10--9--6----
x-|
|------------------|------------------|------------------|------------------
x-|
Riff B.3
|---------------------------------|
|---------------------------------|Gtrs
|---------------------------------|I&II
|---------------------------------|
|-0-0-0-0-6h7-0-0-5h6-0-0-0-0-2h3-|
|---------------------------------|
Repeat Riff B.3 (7 times)
Solo w/Riff B.3 (4 times)
Ending
|---------------------------------|---------------------------------|
|-------------9h10----------------|-------------9h10----------------|
|-----9h10------------9h10----7h9-|-----9h10------------9h10----8h9-|Gtr
|---------------------------------|---------------------------------| I
|-0-0-----0-0-----0-0-----0-0-----|-0-0-----0-0-----0-0-----0-0-----|
|---------------------------------|---------------------------------|
| . . . . . . . . | . . . . . . . . |
| | |
|---------------------------------|---------------------------------|
|---------------------------------|---------------------------------|
|-------------8h9-----------------|-------------7h8-----------------|Gtr
|-----7h8-------------7h8-----5h7-|-----7h8-------------7h8-----6h7-| II
|-0-0-----0-0-----0-0-----0-0-----|-0-0-----0-0-----0-0-----0-0-----|
|---------------------------------|---------------------------------|
. . . . . . . . . . . . . . . .
|---------------------------------|--------------------------------------|
|-------------9h10----------------|-------------9h10---------------------|
|-----9h10------------9h10----7h9-|-----9h10------------9h10----8h9------|Gt
r
|---------------------------------|---------------------------------2----| I
|-0-0-----0-0-----0-0-----0-0-----|-0-0-----0-0-----0-0-----0-0-----0----|
|---------------------------------|--------------------------------------|
| . . . . . . . . | . . . . . . . . |
| | |
|---------------------------------|--------------------------------------|
|---------------------------------|--------------------------------------|
|-------------8h9-----------------|-------------7h8----------------------|Gt
r
|-----7h8-------------7h8-----5h7-|-----7h8-------------7h8-----6h7-2----|
II
|-0-0-----0-0-----0-0-----0-0-----|-0-0-----0-0-----0-0-----0-0-----0----|
|---------------------------------|--------------------------------------|
. . . . . . . . . . . . . . . .
Check Out Death Warp, With More Transcriptions On It:
http://www.sorrowsend.com/deathwarp




Ваше мнение



Капча