Author/Artist: Hypocrisy
Title: Suffering Souls
Album: Penetralia
Transcribed by: JRS
Email: [email protected]

(C-F-A#-D#-G-C)
(listen to song for structure)
------------------------------------------------------------------------------
------------------------------------------------------------------------------
------------------------------------------------------------------------------
--------------------------3-2-------------------------------------------------
-----------2-4-5----------1-0-5-----------------------------------------------
--00000000-0-2-3-00000000-----3-----------------------------------------------
x x x x x x #1A#

------------------------------------------------------------------------------
------------------------------------------------------------------------------
------------------------------------------------------------------------------
------------------------------------------------------------------------------
--------------------------1100------------------------------------------------
--000000000002233000000000----33----------------------------------------------
#1B#

------------------------------------------------------------------------------
------------------------------------------------------------------------------
------------------------------------------------------------------------------
--2--------------2------------------------------------------------------------
--2--------------2------------------------------------------------------------
--0--------------0------------------------------------------------------------
#FILL#

------------------------------------------------------------------------------
------------------------------------------------------------------------------
------------------------------------------------------------------------------
------------------------------------------------------------------------------
--------------------------55555555--------------------------------------------
--000000000000000011111111--------66666666666666665555555555555555------------
#2A#

------------------------------------------------------------------------------
------------------------------------------------------------------------------
------------------------------------------------------------------------------
------------------------------------------------------------------------------
--------------------------55555555-------------------------4---3--------------
--000000000000000011111111--------666666666666666655555555---5---4------------
#2B#

------------------------------------------------------------------------------
------------------------------------------------------------------------------
------------------------------------------------------------------------------
---------------4-5----------5-4-----------------------------------------------
---------------2-3----------3-2-5---------------------------------------------
--222222222222-----22222222-----3---------------------------------------------
#3#

------------------------------------------------------------------------------
------------------------------------------------------------------------------
------------------------------------------------------------------------------
------------------------------------------------------------------------------
------------------------------------------------------------------------------
--00000000000000000000000000000000--------------------------------------------
(fill 1 is played under this) #FILL2#

------------------------------------------------------------------------------
------------------------------------------------------------------------------
------------------------------------------------------------------------------
------------------------------------------------------------------------------
--77777777777777778888888877777777----------------55555555--------------------
----------------------------------6666666666666666--------44444444------------
#4A#

------------------------------------------------------------------------------
------------------------------------------------------------------------------
--44444444444444445555555544444444----------------22222222--------------------
----------------------------------3333333333333333--------11111111------------
------------------------------------------------------------------------------
------------------------------------------------------------------------------
(4A is played under this) #4B#

------------------------------------------------------------------------------
------------------------------------------------------------------------------
------------------------------------------------------------------------------
---------------5-7----------8-7-5---------------------------------------------
--000000000000-3-5-00000000-6-5-3---------------------------------------------
------------------------------------------------------------------------------
#5A#

------------------------------------------------------------------------------
------------------------------------------------------------------------------
------------------------------------------------------------------------------
------------------------------------------------------------------------------
---------------5-7----------8-7-5---------------------------------------------
--000000000000-3-5-00000000-6-5-3---------------------------------------------
#5B

------------------------------------------------------------------------------
------------------------------------------------------------------------------
------------------------------------------------------------------------------
--2---------------------------------------------------------------------------
--2---------------------------------------------------------------------------
--0---------------------------------------------------------------------------
(let ring then fade into bass part) #FILL3#

------------------------------------------------------------------------------
------------------------------------------------------------------------------
------------------------------------------------------------------------------
------------------------------------------------------------------------------
-----------------------------------------------------------2-2-2--------------
--33333333333333332222222222222222333333333333333322222222-0-0-0--------------
x x x #6A#

------------------------------------------------------------------------------
------------------------------------------------------------------------------
------------------------------------------------------------------------------
---------------------------------------------------2--------------------------
---------------------------------------------------2--------------------------
--333333333333333322222222222222223333333333333333-0--------------------------
#6B#

------|-----------------------------------------------------------------------
------|-----------------------------------------------------------------------
------|-----------------------------------------------------------------------
--2---|-----------------------------------------------------------------------
--2---|-----------------------------------------------------------------------
--0---|-----------------------------------------------------------------------
#END#

------------------------------------------------------------------------------
------------------------------------------------------------------------------
------------------------------------------------------------------------------
------------------------------------------------------------------------------
------------------------------------------------------------------------------
------------------------------------------------------------------------------




Ваше мнение



Капча