HYPOCRISY - Slippin' away

tabbed by Succubus


intro

Chords played

Dm F
e|----1-------------1--|
b|----3-------------1--|
g|----2-------------2--|
d|----0-------------3--|
A|------------------3--|
E|------------------1--|

strum these as you want....

Bridge

Gm Bb
e|-----------------------------------------------------------------------
b|-------------------------------------------------------15--13~~~~~~~~--
g|-----------12----14--15-----14~~~~~~-----12----14--15------------------
d|-----------------------------------------------------------------------
A|-----------------------------------------------------------------------
E|-----------------------------------------------------------------------


Gm Bb
e|---------------------------------------------------------------------
b|-----------------------------------------------------15--13~~~~~~~~--
g|----12----14--15--17--15----14~~~~-----12----14--15------------------
d|---------------------------------------------------------------------
A|---------------------------------------------------------------------
E|---------------------------------------------------------------------


Chorus
G5 G5 G5 D5 D#5 F5 G5 D5 D#5 Bb5 A5
e|----------------------------------------------------------------------
b|----------------------------------------------------------------------
g|----------------------------------------------------------------------
d|---5---------5---------5-----7---8---3--------5-----7---8---8---7-----
A|---5---------5---------5-----5---6---3--------5-----5---6---8---7-----
E|---3---------3---------3-----5---6---1--------3-----5---6---6---5-----


Solo 1:
release slowly
e|-----------------------------------------------------------------------
b|----------------------------13b15r 13--13b15r13--------------------
g|-----------10-12-12b14r12p10-----------------------12b14r12-10b12r10---
d|---10h12~~~------------------------------------------------------------
A|-----------------------------------------------------------------------
E|-----------------------------------------------------------------------

bend and release slowly
e|-----------------------------------------------------------------------
b|----------10-----------------------------------------------------------
g|--9-10-12----10b12r10--105b 7r 5------------------------------
d|-----------------------------------------------------------------------
A|-----------------------------------------------------------------------
E|-----------------------------------------------------------------------


Bridge 2:

e|-----------------------------------------------------
b|------------15---13----------------------15---13-----
g|--12---14-----------------12---14---15---------------
d|-----------------------------------------------------
A|-----------------------------------------------------
E|-----------------------------------------------------


e|------------------20--------------------------------------------------
b|---20---22---23--------23--------22------------------------15---13----
g|--------------------------------------------12---14---15--------------
d|----------------------------------------------------------------------
A|----------------------------------------------------------------------
E|----------------------------------------------------------------------


Chorus 2x:


Solo 2: 2x

with octaver

e|------------------------------------------------------------------------------
b|--------------------------------------------------------------------15--------
g|---12---14-14/15--15/17---15p14h15---14h15p14------12---14-14/15-15-----------
d|------------------------------------------------------------------------------
A|------------------------------------------------------------------------------
E|------------------------------------------------------------------------------

hold bend
--------------------13 ----------|
13p11h13----b15 r13p11----|
----------------------------------|
----------------------------------|
----------------------------------|
----------------------------------|



e|-------------------------------------------20b22--20b22r20-18-17-----------
b|---10-11-13-11-10------------------------------------------------18-20-----
g|------------------12-10~~~-10h12--12~~~------------------------------------
d|---------------------------------------------------------------------------
A|---------------------------------------------------------------------------
E|---------------------------------------------------------------------------

rake
e|-----15------------------------------------|
b|----x---18-15------------------------------|
g|---x----------17-15-14b15r14b15r14b15r14---|
d|--x----------------------------------------|
A|-------------------------------------------|
E|-------------------------------------------|


Chorus




Ваше мнение



Капча