HYPOCRISY-ORGY IN BLOOD
From the Album THE FOURTH DIMENSION
Copyright 1994 Nuclear Blast America

Version 1.0 - October 1998
Transcribed by: Zack Demianczyk(Malignant)
email Zack at [email protected], for questions or corrections
Visit my homepage at http://www.angelfire.com/ak2/MalignantTabs/index.html
(Malignant Tablature Dominion)

/ slide up
slide down
p pull on
h hammer on
~ vibrato
. palm mute

Tuning: C
... .. .. . ... ..
|---------------------------------------------------------|
|---------------------------------------------------------|
|---------------------------------------------------------|
|--------2h3----2h3----2h3p2------------2h3----2h3--------|
|-2--------------------------3----------------------5-4-3-|
|-0--000-----00-----00-----------0--000-----00------3-2-1-|
|-----------------------------------------|
|-----------------------------------------|
|-----------------------------222---------|
|---------555-----444-----555-----555-444-|
|-----222-----222-----222-----------------|
|-000-------------------------------------|
.. . .. . .. . .. . .. . .. . .. . ..
|----------------------------------------------|
|----------------------------------------------|
|----------------------------------------------|
|----------------------------------------------|
|-22--3-33--5-55--3-33--2-22--3-33--4-44--3-33-|
|-00--1-11--3-33--1-11--0-00--1-11--2-22--1-11-|
|-----|
|-----|
|-----|
|-----|
|-2-2-|
|-0-0-|
|----------------------------------|
|----------------------------------|
|----------------------------------|
|----------------------------------|
|-77777777666666665555555533333333-|
|----------------------------------|

|----------------------------------|
|----------------------------------|
|----------------------------------|
|----------------------------------|
|-77777777666666665555555533333333-|
|----------------------------------|
| |
|----------------------------------|
|----------------------------------|
|----------------------------------|
|-55555555555555554444444422222222-|
|----------------------------------|
|----------------------------------|
.. . .. . .. . .. . .. . .. . .. . ..
|----------------------------------------------|
|----------------------------------------------|
|----------------------------------------------|
|----------------------------------------------|
|-22--3-33--5-55--3-33--2-22--3-33--4-44--3-33-|
|-00--1-11--3-33--1-11--0-00--1-11--2-22--1-11-|
|---|
|---|
|---|
|---|
|-2-|
|-0-|
... .. .. . ... ..
|---------------------------------------------------------|
|---------------------------------------------------------|
|---------------------------------------------------------|
|--------2h3----2h3----2h3p2------------2h3----2h3--------|
|-2--------------------------3----------------------5-4-3-|
|-0--000-----00-----00-----------0--000-----00------3-2-1-|
|-----------------------------------------|
|-----------------------------------------|
|-----------------------------222---------|
|---------555-----444-----555-----555-444-|
|-----222-----222-----222-----------------|
|-000-------------------------------------|
. . . . . . . . . . . . . . . . . . . . . . . . . . . .
|---------------------------------------------------------|
|---------------------------------------------------------|
|---------------------------------------------------------|
|---------------------------------------------------------|
|-2-2-2-2-2-2-2-2-2-2-2-2-2-2-2-2-2-2-2-2-2-2-2-2-2-2-2-2-|
|-0-0-0-0-0-0-0-0-0-0-0-0-0-0-0-0-0-0-0-0-0-0-0-0-0-0-0-0-|
|---------------|
|---------------|
|---------------|
|----1-2----5-4-|
|---------------|
|-0-------0-----|
. . . . . . . . . . . . . . . . . . . . . . . . . . . .
|---------------------------------------------------------|
|---------------------------------------------------------|
|---------------------------------------------------------|
|---------------------------------------------------------|
|-2-2-2-2-2-2-2-2-2-2-2-2-2-2-2-2-2-2-2-2-2-2-2-2-2-2-2-2-|
|-0-0-0-0-0-0-0-0-0-0-0-0-0-0-0-0-0-0-0-0-0-0-0-0-0-0-0-0-|
|---------------|
|---------------|
|---------------|
|----1-2----5-4-|
|---------------|
|-0-------0-----|
| |
|---------------|
|---------------|
|---------------|
|---------------|
|----1-2----5-4-|
|-0-------0-----|
........ ........
|-----------------------------------------|
|-----------------------------------------|
|-----------------------------------------|
|-----------------5---------------------5-|
|-22222222--2--3--3---2-22222222--2--3--3-|
|-00000000--0--1------0-00000000--0--1----|
... .. .. . ... ..
|---------------------------------------------------------|
|---------------------------------------------------------|
|---------------------------------------------------------|
|--------2h3----2h3----2h3p2------------2h3----2h3--------|
|-2--------------------------3----------------------5-4-3-|
|-0--000-----00-----00-----------0--000-----00------3-2-1-|
|-----------------------------------------|
|-----------------------------------------|
|-----------------------------222---------|
|---------555-----444-----555-----555-444-|
|-----222-----222-----222-----------------|
|-000-------------------------------------|
. . . . . . . . . . . . . . . . . . . .
|------------------------------------------|
|------------------------------------------|
|---------------2--------------------2-----|
|-----5---4---5---5-4------5---4---5---5-4-|
|---2---2---2------------2---2---2---------|
|-0--------------------0-------------------|
|---|
|---|
|---|
|---|
|-2-|
|-0-|
This tab is not permitted or any others off my page to by posted anywhere without
asking me in head of time. For all the time it takes me to do some of these tabs please
ask me first, I would appreciate it, Zack Demianczyk ([email protected])




Ваше мнение



Капча