Author/Artist: Hypocrisy
Title: Nightmare
Album: Penetralia
Transcribed by: JRS
Email: [email protected]

(C-F-A#-D#-G-C)
(just riffs, listen to song for structure)
------------------------------------------------------------------------------
------------------------------------------------------------------------------
------------------------------------------------------------------------------
----------------------6-5-----------------------------------------------------
------5-------8-------4-3-6-------5-------8---4p3---3-------------------------
--000-3---000-6---000-----4---000-3---000-6-------4---4-3-2-1-----------------
xxx xxx xxx xxx xxx x x x x x #1A#

------------------------------------------------------------------------------
------------------------------------------------------------------------------
------------------------------------------------------------------------------
----------------------6-5-----------------------------------------------------
--2-2-5---2-2-8---2-2-4-3-6---2-2-5---2-2-8---4p3---3-------------------------
--0-0-3---0-0-6---0-0-----4---0-0-3---0-0-6-------4---4-3-2-1-----------------
x x x x x x x x x x x x x x x #1B#

------------------------------------------------------------------------------
------------------------------------------------------------------------------
------------------------------------------------------------------------------
--2---------------------------------------------------------------------------
--2---------------------------------------------------------------------------
--0---------------------------------------------------------------------------
(let note ring) #FILL#

------------------------------------------------------------------------------
------------------------------------------------------------------------------
------------------------------------------------------------------------------
------------------------------------------------------------------------------
------------------333-222-------------------------333-222-3-------------------
--000-333-222-000---------333-222-000-333-222-000---------1-------------------
xxx xxx xxx xxx xxx xxx xxx xxx xxx xxx xxx xxx xxx xxx

------------------------------------------------------------------------------
------------------------------------------------------------------------------
------------------------------------------------------------------------------
----------------------------------------------------------3-------------------
------------------333-222-------------------------333-222-1-------------------
--000-333-222-000---------333-222-000-333-222-000-----------------------------
xxx xxx xxx xxx xxx xxx xxx xxx xxx xxx xxx xxx #2A#

------------------------------------------------------------------------------
------------------------------------------------------------------------------
------------------------------------------------------------------------------
------------------------------------------------------------------------------
--2-------------------------------2-----------------------3-------------------
--0---------------------------0-0-0-----------------------1-------------------


------------------------------------------------------------------------------
------------------------------------------------------------------------------
------------------------------------------------------------------------------
----------------------------------------------------------3-------------------
--2-------------------------------2-----------------------1-------------------
--0---------------------------00000-------------------------------------------
(play this only once under 2A) #2B#

------------------------------------------------------------------------------
------------------------------------------------------------------------------
------------------------------------------------------------------------------
--9-------------------------------9--------------10---------------------------
--7---------------8---------------7---------------8---------------------------
--7---------------6---------------7---------------8---------------------------
#3A#

------------------------------------------------------------------------------
------------------------------------------------------------------------------
--4444444444443434----------------44444444444434345555555555555555------------
------------------3333333333333333--------------------------------------------
------------------------------------------------------------------------------
------------------------------------------------------------------------------
#3B#

------------------------------------------------------------------------------
------------------------------------------------------------------------------
------------------------------------------------------------------------------
----------------------------------------------------------3-3-----------------
------4/5-----4/5-----4/5---3-3-----4/5-----4/5-----4/5---1-1-----------------
--000-2/3-000-2/3-000-2/3-0-1-1-000-2/3-000-2/3-000-2/3-0---------------------
xxx xxx xxx x xxx xxx xxx x #4A#

------------------------------------------------------------------------------
------------------------------------------------------------------------------
------------------------------------------------------------------------------
----------------------------------------------------------3-3-----------------
--2-2-4/5-2-2-4/5-2-2-4/5-2-3-3-2-2-4/5-2-2-4/5-2-2-4/5-2-1-1-----------------
--0-0-2/3-0-0-2/3-0-0-2/3-0-1-1-0-0-2/3-0-0-2/3-0-0-2/3-0---------------------
x x x x x x x x x x x x x x #4B#

------------------------------------------------------------------------------
------------------------------------------------------------------------------
------------------------------------------------------------------------------
---------------------------76------------------------------------------------
--444444444444444444444444-54-888888888888888855555555555555-----------------
--222222222222222222222222-----666666666666666633333333333333-----------------
#5#

------------------------------------------------------------------------------
------------------------------------------------------------------------------
------------------------------------------------------------------------------
--9-----------9---8-----------------------------------------------------------
--7-----------7---6-------------9---------------------------------------------
--7-----------7---6-------------7---------------------------------------------
#6A#

------------------------------------------------------------------------------
------------------------------------------------------------------------------
------------------------------------------------------------------------------
----8-9---8-9---9---7-8---7-8---8---------------------------------------------
--7-----7-----7---6-----6-----6-----------------------------------------------
------------------------------------------------------------------------------
#6B#

------------------------------------------------------------------------------
------------------------------------------------------------------------------
------------------------------------------------------------------------------
--2--2--2--2--2--2--2--2--2--2--2--2--2--2--2---------------------------------
--2--2--2--2--2--2--2--2--2--2--2--2--2--2--2---------------------------------
--0--0--0--0--0--0--0--0--0--0--0--0--0--0--0---------------------------------
x x x x x x x x x x x x x x x #FILL2#

------------------------------------------------------------------------------
------------------------------------------------------------------------------
------------------------------------------------------------------------------
--2--------------------2------------------------------------------------------
--2--------------------2------------------------------------------------------
--0--------------------0------------------------------------------------------
(play this between 5 and 7A) #FILL3#

--------------------------------------------------|---------------------------
--------------------------------------------------|---------------------------
--------------------------------------------------|---------------------------
--9-----------------------7-----------------------|---------------------------
--7-----------------------5-----------------------|---------------------------
--------------------------------------------------|---------------------------


--------------------------------------------------|---------------------------
--------------------------------------------------|---------------------------
--------------------------------------------------|---------------------------
--6-----------------------5-----------7-----------|---------------------------
--4-----------------------3-----------5-----------|---------------------------
--------------------------------------------------|---------------------------
(play 7A+7B together) #7A#

--------------------------------------------------|---------------------------
--------------------------------------------------|---------------------------
--------------------------------------------------|---------------------------
--------------------------------------------------|---------------------------
--777777777777777777777777555555555555555555555555|---------------------------
--------------------------------------------------|---------------------------
xxxxxxxxxxxxxxxxxxxxxxxxxxxxxxxxxxxxxxxxxxxxxxxx

--------------------------------------------------|---------------------------
--------------------------------------------------|---------------------------
--------------------------------------------------|---------------------------
--------------------------------------------------|---------------------------
--444444444444444444444444333333333333555555555555|---------------------------
--------------------------------------------------|---------------------------
xxxxxxxxxxxxxxxxxxxxxxxxxxxxxxxxxxxxxxxxxxxxxxxx (play 7A+7B together) #7B#

--------------------------------------------------|---------------------------
--------------------------------------------------|---------------------------
--------------------------------------------------|---------------------------
--222222222222222222222222444444444444444444444444|---------------------------
--------------------------------------------------|---------------------------
--------------------------------------------------|---------------------------
xxxxxxxxxxxxxxxxxxxxxxxxxxxxxxxxxxxxxxxxxxxxxxxx

--------------------------------------------------|---------------------------
--------------------------------------------------|---------------------------
--------------------------------------------------|---------------------------
--555555555555555555555555777777777777555555444444|---------------------------
--------------------------------------------------|---------------------------
--------------------------------------------------|---------------------------
xxxxxxxxxxxxxxxxxxxxxxxx #7C#

------------------------------------------------------------------------------
------------------------------------------------------------------------------
------------------------------------------------------------------------------
------------------------------------------------------------------------------
--2222222222333322222222225555222222222233332222555522223333------------------
------------------------------------------------------------------------------
#8A#

------------------------------------------------------------------------------
------------------------------------------------------------------------------
------------------------------------------------------------------------------
------------------------------------------------------------------------------
------------------------------------------------------------------------------
--2222222222333322222222225555222222222233332222555522223333------------------
#8B#

------------------------------------------------------------------------------
------------------------------------------------------------------------------
------------------------------------------------------------------------------
------------------------------------------------------------------------------
------------------------------------------------------------------------------
--0000000000111100000000003333000000000011110000333300001111------------------
#8C#

------|-----------------------------------------------------------------------
------|-----------------------------------------------------------------------
------|-----------------------------------------------------------------------
--2---|-----------------------------------------------------------------------
--2---|-----------------------------------------------------------------------
--0---|-----------------------------------------------------------------------
#END#

------------------------------------------------------------------------------
------------------------------------------------------------------------------
------------------------------------------------------------------------------
------------------------------------------------------------------------------
------------------------------------------------------------------------------
------------------------------------------------------------------------------




Ваше мнение



Капча