Author/Artist: Hypocrisy
Title: JesusFall
Album: Penetralia
Transcribed by: JRS
Email: [email protected]

(C-F-A#-D#-G-C)
(listen to song for structure)
------------------------------------------------------------------------------
------------------------------------------------------------------------------
------------------------------------------------------------------------------
--9-------8-------12--11---9---8----------------------------------------------
--7-------6-------10---9---7---6----------------------------------------------
------------------------------------------------------------------------------
(pick the chords very fast) #1A#

------------------------------------------------------------------------------
------------------------------------------------------------------------------
--------------------------11--------------------------------------------------
--9-------8-------12--11---9--------------------------------------------------
--7-------6-------10---9------------------------------------------------------
------------------------------------------------------------------------------
(pick the chords very fast) #1B#

------------------------------------------------------------------------------
------------------------------------------------------------------------------
------------------------------------------------------------------------------
--9--------------12--------------8---------------11------12-------------------
--7--------------10--------------6----------------9------10-------------------
------------------------------------------------------------------------------


------------------------------------------------------------------------------
------------------------------------------------------------------------------
-------------------------------------------------12------11-------------------
--9--------------12---------------8--------------10-------9-------------------
--7--------------10---------------6-------------------------------------------
------------------------------------------------------------------------------
#2A#

------------------------------------------------------------------------------
------------------------------------------------------------------------------
------------------------------------------------------------------------------
--2222222222222222555555555555555511111111111111114444444455555555------------
------------------------------------------------------------------------------
------------------------------------------------------------------------------


------------------------------------------------------------------------------
------------------------------------------------------------------------------
--------------------------------------------------5555555544444444------------
--222222222222222255555555555555551111111111111111----------------------------
------------------------------------------------------------------------------
------------------------------------------------------------------------------
#2B#

------------------------------------------------------------------------------
------------------------------------------------------------------------------
------------------------------------------------------------------------------
------------------------------------------------------------------------------
--222233332222------------1111------------------------------------------------
--------------333322223333----2222--------------------------------------------
#3A#

------------------------------------------------------------------------------
------------------------------------------------------------------------------
------------------------------------------------------------------------------
--------------------------2222------------------------------------------------
--222233332222----------------3333--------------------------------------------
--------------333322223333----------------------------------------------------
#3B#

------------------------------------------------------------------------------
------------------------------------------------------------------------------
----------------------55554444--------55554444--------------------------------
--7-------5-------2222--------55552222--------5555----------------------------
--5-------3-------------------------------------------------------------------
------------------------------------------------------------------------------
#4#

------|-----------------------------------------------------------------------
------|-----------------------------------------------------------------------
------|-----------------------------------------------------------------------
--9---|-----------------------------------------------------------------------
--7---|-----------------------------------------------------------------------
--0---|-----------------------------------------------------------------------
#END#

------------------------------------------------------------------------------
------------------------------------------------------------------------------
------------------------------------------------------------------------------
------------------------------------------------------------------------------
------------------------------------------------------------------------------
------------------------------------------------------------------------------




Ваше мнение



Капча