Author/Artist: Hypocrisy
Title: God Is A Lie
Album: Penetralia
Transcribed by: JRS
Email: [email protected]

(C-F-A#-D#-G-C)
(just riffs, listen to song for structure)
------------------------------------------------------------------------------
------------------------------------------------------------------------------
------------------------------------------------------------------------------
------------------------------------------------------------------------------
--------------------------5555555544444444--------33333333--------------------
--000000004444444433333333----------------55555555--------44444444------------
#1A#

------------------------------------------------------------------------------
------------------------------------------------------------------------------
------------------------------------------------------------------------------
------------------------------------------------------------------------------
--------------------------5555555544444444--------3333333333333333------------
--000000004444444433333333----------------55555555----------------------------
#1B#

------------------------------------------------------------------------------
------------------------------------------------------------------------------
------------------------------------------------------------------------------
------------------------------------------------------------------------------
---------------------------3--------------------------------------------------
--000000000000000000000000-1--------------------------------------------------
(listen for A + B patern, then A + C with vocals) #2A#

------------------------------------------------------------------------------
------------------------------------------------------------------------------
------------------------------------------------------------------------------
------------------------------------------------------------------------------
---------------------------6--------------------------------------------------
--000000000000000000000000-4--------------------------------------------------
#2B#

------------------------------------------------------------------------------
------------------------------------------------------------------------------
------------------------------------------------------------------------------
------------------------------------------------------------------------------
---------------------------4p3------------------------------------------------
--000000000000000000000000-----4----------------------------------------------
#2C#

------------------------------------------------------------------------------
------------------------------------------------------------------------------
------------------------------------------------------------------------------
---------------------------4/5-7----------------------------------------------
---------------------------2/3-5----------------------------------------------
--222222222222222233333333----------------------------------------------------
#3#

------------------------------------------------------------------------------
------------------------------------------------------------------------------
------------------------------------------------------------------------------
------------------------------------------------------------------------------
-------------------------------3----------------------------------------------
--0000000000000000000000000000-1----------------------------------------------
#4A#

------------------------------------------------------------------------------
------------------------------------------------------------------------------
------------------------------------------------------------------------------
-------------------------------3----------------------------------------------
-------------------------------1----------------------------------------------
--0000000000000000000000000000-1----------------------------------------------
#4B#

------------------------------------------------------------------------------
------------------------------------------------------------------------------
------------------------------------------------------------------------------
------------------------------------------------------------------------------
------2h3-----3h5-----5h7------3----------------------------------------------
--0-0-----0-0-----0-0------0-0-1----------------------------------------------
#5A#

------------------------------------------------------------------------------
------------------------------------------------------------------------------
------------------------------------------------------------------------------
------------------------------------------------------------------------------
------5h7-----7h9-----9h10-----3----------------------------------------------
--0-0-----0-0-----0-0------0-0-1----------------------------------------------
#5B#

------------------------------------------------------------------------------
------------------------------------------------------------------------------
------------------------------------------------------------------------------
------------------------------10--7--9----------------------------------------
-------------------------------8--5--7----------------------------------------
--0000000000000000000000000000------------------------------------------------
#6A#

------------------------------------------------------------------------------
------------------------------------------------------------------------------
------------------------------------------------------------------------------
------------------------------10--7-------------------------------------------
-------------------------------8--5-------------------------------------------
--0000000000000000000000000000------------------------------------------------
#6B#

------------------------------------------------------------------------------
------------------------------------------------------------------------------
------------------------------------------------------------------------------
--9----------------------------9----------------------------------------------
--7----------------------------7----------------------------------------------
--0----------------------------0----------------------------------------------
x #FILL#

------|-----------------------------------------------------------------------
------|-----------------------------------------------------------------------
------|-----------------------------------------------------------------------
--2---|-----------------------------------------------------------------------
--2---|-----------------------------------------------------------------------
--0---|-----------------------------------------------------------------------
#END#

------------------------------------------------------------------------------
------------------------------------------------------------------------------
------------------------------------------------------------------------------
------------------------------------------------------------------------------
------------------------------------------------------------------------------
------------------------------------------------------------------------------




Ваше мнение



Капча