Burned By The Cross -
by Hypocrisy -
from the album Penetralia
Trascription by : Balsama (P. Mackay)
Questions, comments, corrections...
E-Mail address : [email protected]
Tab Notation:
~ tremolo pick
h hammer-on
... palm mute

This Tablature was created with Tab Form Creator by Ugo Gasparri
[email protected]
* Riff 1...This is a rough rythem track. Just listen to the song for
a more accurate rythem
play this 3x then play this
E-|---------------------------/------------------------
B-|---------------------------/------------------------
G-|--------------------------/--------------------5-4-3
D-|2-2222-2-2222-2-2-3-2-2-3-/-2-2222-2-2222-5-4-3-----
A-|2-2222-2-2222-2-2-3-2-2-3-/-2-2222-2-2222-----------
E-|0-0000-0-0000-0-0-1-0-0-1-/-0-0000-0-0000-----------
. .... . .... . . . . . .... . ....
*
*
*
* Riff 2
E-|----------------------------------------------------
B-|----------------------------------------------------
G-|----------------------------------------------------
D-|2-2222-2-2222-2-2-3-2-2-3--2-2222-2-2222-2-1-0-5-4-3
A-|2-2222-2-2222-2-2-3-2-2-3--2-2222-2-2222------------
E-|0-0000-0-0000-0-0-1-0-0-1--0-0000-0-0000-----------
. .... . .... . . . . . .... . ....
*
*
*
* Riff 3
E-|----------------------------------------------------
B-|----------------------------------------------------
G-|-----------------------------------------------5-4-3
D-|2-2222-2-2222-2-2-3-2-2-3---2-2222-2-2222-5-4-3-----
A-|2-2222-2-2222-2-2-3-2-2-3---2-2222-2-2222-----------
E-|0-0000-0-0000-0-0-1-0-0-1---0-0000-0-0000-----------
. .... . .... . . . . . .... . ....

*
*
*
* Riff 4
E-|----------------------------------------------------
B-|----------------------------------------------------
G-|----------------------------------------------------
D-|----------------------------------------------------
A-|-7~------8~---7~------10~---------------------------
E-|---8~-7~--------8~-7~-------------------------------
The second time this whole Riff is played, I believe the second
guitarist is playing up a fifth (...just power chord the single
notes). I might be wrong and it's an octave.
*
*
*
Riff 5a
E-|----------------------------------------------------
B-|----------------------------------------------------
G-|----------------------------------------------------
D-|----------------8---------------2-------------------
A-|-7-8-7-10-7-8-7---7-8-7-10-7-8--2-------------------
E-|--------------------------------0-------------------
*
*
*
Riff 5b
E-|----------------------------------------------------
B-|----------------------------------------------------
G-|----------------------------------------------------
D-|-----------------------8~--------------------8~-7~--
A-|-7~-8~-7~-10~-7~-8~-7~----7~-8~-7~-10~-7~-8~--------
E-|----------------------------------------------------

*
*
*
* Riff 6
E-|----------------------------------------------------
B-|----------------------------------------------------
G-|----------------------------------------------------
D-|----------------------------------------------------
A-|-------3~-2~--------5~-4~---------------------------
E-|-0~-1~-------0~-1~----------------------------------

*
*
*
* Riff 7a
E-|----------------------------------------------------
B-|----------------------------------------------------
G-|----------------------------------------------------
D-|-2-2--------2-2-------2-2-------2-3-3---------------
A-|-2-2--2h3h2-2-2-2h3h2-2-2-2h3h2-2-3-3---------------
E-|-0-0--------0-0-------0-0-------0-1-1---------------
. . . . . . .
*
*
*
* Riff 7b
E-|----------------------------------------------------
B-|----------------------------------------------------
G-|-------------------------------3--------------------
D-|-2-2-------2-2-------2-2-------3-3------------------
A-|-2-2-2h3h2-2-2-2h3h2-2-2-2h3h2-1-3------------------
E-|-0-0-------0-0-------0-0---------1------------------
. . . . . .
*
*
*
* Riff 8
E-|----------------------------------------------------
B-|----------------------------------------------------
G-|----------------------------------------------------
D-|-9---5---8---2---9---5---8--------------------------
A-|-7~--3~--6~--4~--7~--3~--6~-------------------------
E-|----------------------------------------------------

*
*
*
*
E-|----------------------------------------------------
B-|----------------------------------------------------
G-|----------------------------------------------------
D-|-4-5--4-5-2--4-5----2-4-2---------------------------
A-|-2-3--2-3-2--2-3----0-2-2---------------------------
E-|----------0-------------0---------------------------

* That's all, I think. Hope it's cool. I don't pay too much attention
to where you palm mute, so just listen to the song for precise mutes.
Some of these riffs could be played in different (and more economical)
positions (e.g. Riff 5). However, this is how I am comfortable
playing




Ваше мнение



Капча