ADJUSTING THE SUN
BY HYPOCRISY
TAKEN FROM THE FINAL CHAPTER
Tabbed by: GORGUTS-JASON STEWART
Questions Comments E-Mail: [email protected] (0 is a zero)
NOTE:This is my first tab.
Tune down 1/2 step
Riff 1
|------------------|-------------------|
|------------------|-------------------|
|------------------|-------------------|
|------------------|-------------------|
|---7---7---5---7--|-----10-----9---9--|
|-0---0---0---0----|-0-8----0-0---0----|



|------------------|-------------------|
|------------------|-------------------|
|------------------|-------------------|
|------------------|-------------------|
|---7---7---5---7--|-----10-----9---10-|
|-0---0---0---0----|-0-8----0-0---0----|


Riff 2
|------------------|-------------------|
|------------------|-------------------|
|------------------|---4~-----2---4----|
|---5---5---4---5--|-------------------|
|---7---7---5---7--|-------------------|
|-0---0---0---0----|-0------0---0------|

Riff 3
|-------------------------------------------------|
|-------------------------------------------------|
|-------------------------------------------------|
|----------------------------------7h9h10---------|
|-----7h9h10-----7h9h10-----7h9h10--------7h9h10--|
|-0-0--------0-0--------0-0-----------------------|


|-----------------------------------------------------|
|-----------------------------------------------------|
|-----------------------------------------------------|
|-----------------------7h9h10------------------------|
|-----7h9h10-----7h9h10--------7h9h10---------7h9h10--|
|-0-0--------0-0----------------------8h10h12---------|
Riff 4
|--------------------------------------------|
|--------------------------------------------|
|--------------------------------------------|
|--------------------------------------7~----|
|-----7h9h10-----7h9h10-----7h9h10-----------|
|-0-0--------0-0--------0-0--------0-0-------|


|--------------------------------------------|
|--------------------------------------------|
|--------------------------------------------|
|--------------------------------------9~----|
|-----7h9h10-----7h9h10-----7h9h10-----------|
|-0-0--------0-0--------0-0--------0-0-------|

|--------------------------------------------|
|--------------------------------------------|
|--------------------------------------------|
|-------------------------------------9~-----|
|-----7h9h10-----7h9h10-----7h9h10-----------|
|-0-0--------0-0--------0-0--------0-0-------|


|-----------------------------------------------------|
|-----------------------------------------------------|
|-----------------------------------------------------|
|-----------------------7h9h10------------------------|
|-----7h9h10-----7h9h10--------7h9h10---------7h9h10--|
|-0-0--------0-0----------------------8h10h12---------|

THE REST OF THE SONG IS FAIRLY EASY, YOU SHOULD BE ABLE
TO FIGURE IT OUT. HE JUST PICKS THE E STRING AND THROWS
IN SOME POWER CHORDS.




Ваше мнение



Капча