Artist:Humble Pie
Song:Up Our Sleeve
Album:Eat It
Tabbed By:Gary Hricewich
E-mail:[email protected]

Guitar Intro Bass Intro +Run 2x
G--------------|---------------|---------------|---|
D--------------|-------5-------|*-------------*|---|
A--------------|---5-7---7-----|*-------------*|---|
E--------------|-7-------------|--3-5-0--------|-0-|
Verse 4x Chorus 4x
G---|------------------------|-|-----------------------|-|
D---|*--------------5-------*|-|*--------------5------*|-|
A---|*----------5-7---7-----*|-|*----------5-7---7----*|-|
E---|--3-5-0--7-----------0--|-|--3-5-0--7-------------|-|
G-----|---|---|----------------------|----------|------------------|
D-----|---|---|--------------5-------|----------|--------------5---|
A-----|---|---|----------5-7---7-----|----------|----------5-7---7-|
E---0-|-0-|-0-|-3-5-0--7-----------0-|-3-3--5-5-|-3-5-0--7---------|
G-----------------|------------------|-------------------|
D-----------5-5---|--------------5---|-------------------|
A---------5-----7-|----------5-7---7-|-----------5-7-5---|
E---0---7---------|-3-5-0--7---------|-0-4-5-6-7-------7-|

Guitar Lead 5x +Run 2x
G---|---------------------|-------|-|-------------------------|-|
D---|*--------------5----*|-------|-|*-----------------------*|-|
A---|*----------5-7---7--*|-5-----|-|*-----------------------*|-|
E---|--3-5-0--7-----------|-------|-|--0-0-0-0-0--0-5-5-5-0---|-|
4x
G------------------------|------------------------|--------------------|-|
D------------------------|------------------------|*--------------5---*|-|
A----------------5-5-5---|------------------6-5-3-|*----------5-7---7-*|-|
E---5-5-5-5-5--5-------5-|-5-5-5-5-5--5-3-0-------|--3-5-0--7----------|-|

Verse 4x Chorus 4x +Run
G---|------------------------|-|--------------------|---------|-|
D---|*--------------5-------*|-|*--------------5---*|---------|-|
A---|*----------5-7---7-----*|-|*----------5-7---7-*|-5-------|-|
E---|--3-5-0--7-----------0--|-|--3-5-0--7----------|---------|-|
G---|------------------------|----------------------|------------------------|
D---|*----------------------*|----------------------|------------------------|
A---|*----------------------*|--------------5-5-5---|------------------6-5-3-|
E---|--0-0-0-0-0--0-5-5-5-0--|-5-5-5-5-5--5-------5-|-5-5-5-5-5--5-3-0-------|

Chorus 6x E n d i n g R i f f +Run/END
G---|--------------------|-------------------|-----------------|--------|-|
D---|*--------------5---*|-------------------|-----------------|--------|-|
A---|*----------5-7---7-*|-----------5-7-5---|---------5-7-5---|--------|-|
E---|--3-5-0--7----------|-0-4-5-6-7-------7-|-4-5-6-7-------7-|-0------|-|




Ваше мнение



Капча