Artist:Humble Pie
Song:Thunderbox
Album:Thunderbox
Tabbed By:Gary Hricewich
E-mail:[email protected]

Intro
G---------------------|-|
D---------------------|-|
A---------------------|-|
E---5-----------------|-|


Main Riff
G----------------|-------------|
D----------------|-------4-7-9-|
A----------------|---5-7-------|
E---7-7-7-5-7-7--|-7-----------|


Bridge
G-------|---------|-----|---|
D-------|---------|-----|---|
A---7-7-|-----7-7-|-----|-7-|
E-------|-5-5-----|-5---|---|

Bridge 2 +Run
G--------|---------|---|---|-----------|---|-----|
D--------|---------|---|---|-4---------|---|-----|
A---7-7--|-----7-7-|---|-7-|-----------|-7-|---7-|
E--------|-5-5-----|-5-|---|-----------|---|-5---|

Bridge 3/Hold + Improvise
G------------------------|-|
D------------------------|-|
A------------------------|-|
E---5--------------------|-|

Lead /Improvise Improvise/Fade Out/End
G------------------|----------------------|-|
D------------------|----------------------|-|
A------------------|----------------------|-|
E---5--------------|---5------------------|-|




Ваше мнение



Капча