Artist:Humble Pie
Song:The Fixer
Album:Smokin
Tabbed By:Gary Hricewich
E-mail:snapper2001@ msn.com


Intro and Main
G-------------------------------------------|---------------------------|
D-----------5-6---------5-6--7---7----------|-----7------7-5----7-5-----|
A---4-5-6-7-----4-5-6-7-------------7-9-5-3-|--------7-9-----7------7-5-|
E------------------------------5------------|-5-5-----------------------|

Verse Improvise/Walk
G----------|---------------------|-|
D----------|---------------------|-|
A-----3----|---------------------|-|
E---5---5--|---------------------|-|

Bridge
G------------------|----------------|-----------------|
D------------------|----------------|-----------------|
A---5-5-5-5-5--3-5-|-3-3-3-3-3--1-3-|-----------5-----|
E------------------|----------------|-3-3-3-3-3---5-5-|

3x End
G---|-------------|------------------|--------------|-----|
D---|*-----7-5---*|------------------|------7-----7-|-----|
A---|*-7-9-------*|-5-7-8-9-10-11-12-|--7-9---7-9---|-----|
E---|-------------|------------------|--------------|---5-|




Ваше мнение



Капча