Artist:Humble Pie
Song:I Dont Need No Doctor
Album:Rockin The Filmore
Tabbed by:Gary Hricewich
[email protected]


GuitarIntro2x 4x
G----------------|----------------------------------|-|
D----------------|*--------------------------------*|-|
A----------------|*--------------------------------*|-|
E---------12--/--|----0-3-5---5-5-3-----------------|-|



G-----------------------------------|---------------------------------|
D-----------------------------------|-----------------------5---------|
A-----------------------------5-7-5-|-------------------5-7---7-5-----|
E---0-0-0-0-0-0-0-0-0-0-0-0-7-------|-0-0-0-0-0-0-0-0-7-----------7-5-|


2x
G---|----------------|-----------------------------|
D---|*--------------*|-----------------------------|
A---|*--------------*|-------------------------3-5-|
E---|--0-3-5--5-5-3--|-5-5-5-5-5-5-5-5-5-5-5-5-----|


2x
G---------------------------------|-----------------------------|-|
D---------------------5-----------|*---------------------------*|-|
A-------------------7---7-5-3-----|*---------------------------*|-|
E---5-5-5-5-5-5-5-5-----------5-3-|--0-3-5--5-5-3---------------|-|


2x
G---------------------------------|---------------------------|-|
D-----9---9---9---9-7-------------|*-------------------------*|-|
A---------------------9-7-5-------|*-------------------------*|-|
E---7---7---7---------------7--5--|---0-3-5--5-5-3------------|-|


The Doctor Said I Need Rest 4x
G---|----------------------------|------|---------------------------------|
D---|*--------------------------*|------|-------------5-------------------|
A---|*--------------------------*|------|-----5---------7-5---------------|
E---|--0-0-0-0-0-0-0-0-0-0--5-5--|-0--5-|-7-7---7-5-7-------7-5-3-5-7-5-3-|


4x Guitar Lead 4x
G---|----------------|-|----------------|-|
D---|*--------------*|-|*--------------*|-|
A---|*--------------*|-|*---3-5--5-5-3-*|-|
E---|--0-3-5--5-5-3--|-|--5-------------|-|

Bass Solo/Improvise and Extend


G-----------|---------|---------------------|------------------|
D---7-------|-7-------|-----7---5---------7-|----------7-------|
A-----7-5-0-|---7-5-0-|-5h7---7---7-5-5-7---|-4-5-6-7----7-5-0-|
E-----------|---------|---------------------|------------------|



G------------------------|------------------|------------------------|
D-----7---7---5--7-------|----------7-------|-------------5--7-------|
A---7---7---7------7-5-0-|-4-5-6-7----7-5-0-|-------3-5-7------7-5-0-|
E------------------------|------------------|-0-3-5------------------|


End Bass Solo
G--------------------|------------------|-----------------------|
D------------7-------|-7-5---5--7-------|-5h7-5h7-5h7-5-----5-7-|
A---4-5-6-7----7-5-0-|-----7------7-5-0-|---------------7-5-----|
E--------------------|------------------|-----------------------|


8x
G---------|----------------|----------------------------------------------|
D---------|*--------------*|---9---9---9--9-7---------5-------------------|
A---------|*--------------*|------------------9-7-5-----7-5---------------|
E---12--/-|--0-3-5--5-5-3--|-7---7---7--------------7-------7-5-3-5-7-5-3-|



G-----|---|---|-----|
D-----|---|---|-----|
A-----|---|---|-----|
E---0-|-3-|-5-|---0-|




Ваше мнение



Капча