Artist:Humble Pie
Song:Cmon Everybody
Album:Smokin
Tabbed By:Gary Hricewich
E-mail:[email protected]

Intro Ect 2x
G---------|-----------------|-----------|------------------------|-|
D---------|-----------------|*----------|-7---------------------*|-|
A---------|-0-0-0-0-0-0-0-0-|*-0-0--5-5-|---9-7-9-7-3-4-0-3-4-0-*|-|
E---------|-----------------|-----------|------------------------|-|

Verse/Ect 2x +Run +Run 2x
G---|----------------------------------------------------|-|------|-------|-|
D---|*--------------------------------------------------*|-|*-----|------*|-|
A---|*-0-0-0-0-0-0-0-0--0-0-5-7-0-0-5-7-0-0-5-7-0-0-5-7-*|-|*-5---|-7----*|-|
E---|----------------------------------------------------|-|------|-------|-|

2x Rest Ect
G---------------|-----------|------------------------|----|-|--------------|
D---7-7-5---5-7-|*----------|-7---------------------*|----|-|*-------------|
A---------7-----|*-0-0--5-5-|---9-7-9-7-3-4-0-3-4-0-*|----|-|*-0-0-0-0-0-0-|
E---------------|-----------|------------------------|----|-|--------------|


2x +Run +Run2x
G-------|------|--|------|------|-------------|
D-------|-----*|--|*-----|-----*|-7-7-5---5-7-|
A---0-0-|-0-0-*|--|*-5---|-7---*|-------7-----|
E-------|------|--|------|------|-------------|

2x Rest Lead/Ect
G---|-----------|------------------------|----|---------|-----------|-|
D---|*----------|-7---------------------*|----|---------|*----------|-|
A---|*-0-0--5-5-|---9-7-9-7-3-4-0-3-4-0-*|----|-0-0-0-0-|*-0-0--5-5-|-|
E---|-----------|------------------------|----|---------|-----------|-|

2x Rest Ect
G--------------------------|----|------------------------------------------|
D---7---------------------*|----|------------------------------------------|
A-----9-7-9-7-3-4-0-3-4-0-*|----|-0-0-0-0--0-0-5-7-0-0-5-7-0-0-5-7-0-0-5-7-|
E--------------------------|----|------------------------------------------|

Ect
G-------------------|-----|-----|
D-------------------|-----|-----|
A---0-0-0-0-0-0-0-0-|-0-0-|-0-0-|
E-------------------|-----|-----|

+Run +Run2x 2x
G---|-----|-----|-------------|-----------|------------------------|-|
D---|*----|----*|-7-7-5---5-7-|*----------|-7---------------------*|-|
A---|*-5--|-7--*|-------7-----|*-0-0--5-5-|---9-7-9-7-3-4-0-3-4-0-*|-|
E---|-----|-----|-------------|-----------|------------------------|-|


[Ending Riff ] [Ending Chords+Run On Each]
G-------------7-5-7-5-|-----------|-----|-----|-----|------|-|
D---7-7-5---5---------|-7-7-5---5-|-----|-----|-----|------|-|
A---------7-----------|-------7---|-5---|-3---|-----|------|-|
E---------------------|-----------|-----|-----|-3---|-5----|-|




Ваше мнение



Капча