Artist:Humble Pie
Song:30 Days In The Hole
Album:Smokin
Tabbed By:Gary Hricewich
E-mail:[email protected]

Intro Bass Intro
G------------------|---------------|
D------------------|---------------|
A------------------|-7-----------7-|
E------------------|---9-7-9-7-9---|

Verse
G-----------|---------|---------|---------------|-----|-----------|
D-----------|---------|---------|---------------|-----|-----------|
A-------7-7-|---------|-----7-7-|-7-----------7-|---7-|-------7-7-|
E---5-5-----|-4-5-6-7-|-5-5-----|---9-7-9-7-9---|-5---|-5-5-5-----|

Bass Run To Chorus
G------------|---------------------|
D------------|-----------7-7-7-5---|
A---5--5-5-5-|---------5---------7-|
E------------|-12---7-------------|

Chorus
G------------------------------|
D---------5-----7--------5-4-3-|
A---7-7-7---7------------------|
E-------------5----------------|

Bridge
G------------|----------|------------|------------|
D------------|----------|------------|------------|
A------------|----------|-7-7--5-----|-7-7--5-----|
E---7-7--7-7-|-5-5--5-5-|--------7-5-|--------7-5-|




Ваше мнение



Капча