From: Israel [email protected]
Del disco LIVE fourteen thousand three hundred eightyfour days later
Esta basado en tres riffs basicamente
INTRO
la segunda vez con palanca
E|----------------------|------------------------|
B|----------------------|------------------------|
G|----------------------|------------------------|
D|--9-9-----7-7-sl-9----|----9-9-----7-7-sl-9-9--|
A|--7-7-x-7-5-5-sl-7----|----7-7-0-7-5-5-sl-7-7--|
E|------x-5-------------|--------5-5-------------|
E|----------------------|----------------------------|
B|----------------------|----------------------------|
G|----------------------|----------------------------|
D|--9-9-----7-7-sl-9-9--|----9-9-----7-7-sl-9-9-xxxx-|
A|--7-7-7-7-5-5-sl-7-7--|----7-7-0-7-5-5-sl-7-7-xxxx-|
E|------5-5-------------|--------5-5-----------------|
E|----------------------|
B|----------------------|
G|----------------------|
D|---7----------7--5----|
A|---5----------5--3----|
E|----------------------|
E|----------------------------------------------------------
B|----------------------------------------------------------
G|----------------------------------------------------------
D|-7-7-7-7-9-9-9-9-7-7-7-7-9-9-9-9-7-7-7-7-9-9-9-9-7--------A|-5-5-5-5-7-7-7-7-5-5-5-5-7-7-7-7-5-5-5-5-7-7-7-7-5--------
E|----------------------------------------------------------
E|----------------------| no lo completo por el efecto que
B|---7^8-7-8-7-5--------| no lo identifico
G|----------------------|
D|----------------------|2 veces
A|----------------------|
E|----------------------|
Para enviarme correcciones o comentarios mandame un e-mail a [email protected]




Другие песни исполнителя

Tired
Sad I Cry
Tears


Ваше мнение



Капча