-----------------------------------------------------------------------------
Ghost – Howie Day
-----------------------------------------------------------------------------
Tabbed by: Stephanie
Email: [email protected]
Tuning: EADGBE
I didn’t put in the strumming patterns but they’re pretty easy to figure out
if you listen to the song. These two sections are basically the intro and
verses, but the rest of the song is based around the same chords (except for
“No, I just wanna taste your love”). Play around with the variation on the E.
e|-----4------------0---------0-----------0--0--0--2------------------------|
B|-----5------------5---------0-----------0--0--0--0------------------------|
G|-----6------------6---------2-----------1--2--1--2------------------------|
D|-----6------------6---------2-----------2--2--2--2------------------------|
A|--4--4------------0-----0---0----2/5----2--2--2--2------------------------|
E|--------------4---5------------------0--0--0--0--0------------------------|
e|-----4------------0---------0-----------0--0--0--0--2--0------------------|
B|-----5------------5---------0-----------0--0--0--0--0--0------------------|
G|-----6------------6---------2-----------1--2--1--2--0--2------------------|
D|-----6------------6---------2-----------2--2--2--2--2--2------------------|
A|--4--4------------0-----0---0----2/5----2--2--2--2--2--2------------------|
E|--------------4---5------------------0--0--0--0--0--0--0------------------|
No, I just wanna taste your love…
e|---4----0---2-------------------------------------------------------------|
B|---5----0---3-------------------------------------------------------------|
G|---6----2---3-------------------------------------------------------------|
D|---6----2---3-------------------------------------------------------------|
A|---4----0---2-------------------------------------------------------------|
E|--------------------------------------------------------------------------|
Song ends on E




Ваше мнение



Капча