"Everyone's a winner" by Hot Chocolate.
How to play:
Riff A, Riff B then Riff A, Riff C
Later on towards the end this changes to
Riff A, Riff D then Riff A, Riff C
Riff A:
1 --------------------------------------------------
2 --------------------------------------------------
3 --------------------------------------------------
4 --------------------------------------------------
5 --------------------------------------------------
6 --11-10--five times -8-6--------------------------
Riff B:
1 --------------------------------------------------
2 --------------------------------------------------
3 --------------------------------------------------
4 --------------------------------------------------
5 --------11--13--------11--------------------------
6 --11-13---------11-13------11-13------------------
Riff C:
1 --------------------------------------------------
2 --------------------------------------------------
3 --------------------------------------------------
4 --------------------------------------------------
5 --------11-11--------11---------------------------
6 --11-13--------11-13----11-11-13------------------
Riff D:
1 --------------------------------------------------
2 --------------------------------------------------
3 --------------------------------------------------
4 --------------------------------------------------
5 -----------------------8--------------------------
6 --11-10-five times--11----------------------------
Hot Chocolate are a band that are sadly absent from
OLGA so I thought I would remedy this with my version
of "Everyone's a winner." I am pretty sure that Riff C
is slightly wrong but it sounds OK. Anyone who knows
any better is welcome to correct this.
Bye then. [email protected]




Ваше мнение



Капча