Intro
E|-------------------------------------------------------------------||
B|------12-----------------------------------------------------------||
G|------12-----------------------------------------------------------||
D|-------------------------------------------------------------------||
A|-------------------------------------------------------------------||
E|-------------------------------------------------------------------||
Repeat as many times needed

Intro 2
E|-------------------------------------------------------------------||
B|-------------------------------------------------------------------||
G|---------------2---4---6-------------------------------------------||
D|---2---4---6---2---4---6-------------------------------------------||
A|---2---4---6---0---2---4-------------------------------------------||
E|---0---2---6-------------------------------------------------------||

Thats all folks. Credit to my friend Ryan for tabbing this song!
-Mike




Ваше мнение



Капча