Great song with one funny intro, but I'm not entirely sure if it is
Hot Action Cop as I don't think it's on the album, but it sounds like
the singer and their style.

anyway, standard tuning, and distortion.

Intro
|-------------------------------
|-------------------------------
|-----------------------7-8-7-5-
|-7--7-7-10-10-7--7-7-7-7-8-7-5-
|-7--7-7-10-10-7--7-7-7-5-6-5-3-
|-5--5-5-8--8--5--5-5-5---------

Verse
|-----------------------------------
|-----------------------------------
|---------------------------7-8-7-5-
|-7-7-7-7-10-10-10-7--7-7-7-7-8-7-5-
|-7-7-7-7-10-10-10-7--7-7-7-5-6-5-3-
|-5-5-5-5-8--8--8--5--5-5-5---------
PM....... ........

|-----------------------------------------
|-----------------------------------------
|-----------------------------------------
|-7-----3-----7-----3-3-3-3-7-----3-----7-
|-7-----3-----7-----3-3-3-3-7-----3-----7-
|-5-----1-----5-----1-1-1-1-5-----1-----5-
^do some fast strumming on that A5

Chorus
(lead guitar)
|-5-/-8--5-/-11--5-
|--------------------
|--------------------
|--------------------
|--------------------
|--------------------

(rhythm)
|-------------------------------
|-------------------------------
|-----------------------7-8-7-5-
|-7--7-7-10-10-7--7-7-7-7-8-7-5-
|-7--7-7-10-10-7--7-7-7-5-6-5-3-
|-5--5-5-8--8--5--5-5-5---------

Bridge
|----------------------
|----------------------
|----------------------
|-5-5-5-2------5-5-5-2-
|-5-5-5-2------5-5-5-2-
|-3-3-3-0------3-3-3-0- x2

|-------------------------------
|-------------------------------
|-----------------------7-8-7-5-
|-7--7-7-10-10-7--7-7-7-7-8-7-5-
|-7--7-7-10-10-7--7-7-7-5-6-5-3-
|-5--5-5-8--8--5--5-5-5---------

Play Verse

Chorus

Solo
|--------------------------------------------------------------------------
|--------------------------------------------------------------------------
|---------------------------------------------------------------7^-5-7-5h7-
|--------------------------------------------------------------------------
|--------------------------------------------------------------------------
|-8---5-8-5-8-5---5--5-5-5--8---5-8-5-8-5---5-5-5--8-7-5-3-5-7-------------

--------------------------------------------------------------
--------------------------------------------------------------
-----5-7-5-7^-7^-7^-7p5-----5-5-----------------------------5-
-5-7--------------------5-7-----7p6p5-7p6p5-7p6p5-7p6p5-5-7---
--------------------------------------------------------------
--------------------------------------------------------------

there's a few notes missing in that solo and the end of it I haven't got round to
yet, but it's based around the A pentatonic scale, so improvise, but I'll try and
work it out and update it soon.

the rhythm part underneath I can't actually hear, but I'm guessing it'll be
either the intro riff or the riff that comes after.....

|-----------------------------------------
|-----------------------------------------
|-----------------------------------------
|-7-----3-----7-----3-3-3-3-7-----3-----7-
|-7-----3-----7-----3-3-3-3-7-----3-----7-
|-5-----1-----5-----1-1-1-1-5-----1-----5-
^do some fast strumming on that A5

Chorus
(lead guitar)
|-5-/-8--5-/-11--5-
|--------------------
|--------------------
|--------------------
|--------------------
|--------------------

(rhythm)
|-------------------------------
|-------------------------------
|-----------------------7-8-7-5-
|-7--7-7-10-10-7--7-7-7-7-8-7-5-
|-7--7-7-10-10-7--7-7-7-5-6-5-3-
|-5--5-5-8--8--5--5-5-5---------

last time end on the A5 chord (on the E string fret 5)

I hope you found that useful in some way, sorry couldn't quite finish the
solo but I'll try have that done soon. any questions? [email protected]




Ваше мнение



Капча