Use Me
by Hootie and the Blowfish with
Edwin McCain and Craig Shields
from Scattered, Smothered and Covered
Originally recorded by Bill Withers (1971)

(Drums) Soni Sonefeld
Intro:

Mark Bryan
e------------------------------------------------------------------
b------------------------------------------------------------------
g------------------------------------------------------------------
d---12--9---12--9--12---9-----6--0--------------------Repeat-------
a---10--7---10--7--10---7-----4--0--0h4-5-6-7/10------Throughout---
E-0-------0-----------0---------------------------0---except chorus

Edwin McCain
e--12-12-12-12-12-12-12-12-12-12-5-5-5-5-5-5-0-0---
b--12-12-12-12-12-12-12-12-12-12-5-5-5-5-5-5-0-0---
g--12-12-12-12-12-12-12-12-12-12-5-6-6-6-6-6-0-0---
d--12-12-12-12-12-12-12-12-12-12-5-5-5-5-5-5-0-0---
a--12-12-12-12-12-12-12-12-12-12-5-7-7-7-7-7-0-0---
E--12-12-12-12-12-12-12-12-12-12-5-5-5-5-5-5-0-0---

Darius Rucker
e--0--0--0--0--0--0--0--0--0--0--0-0-0-0-0-0-
b--3--3--3--3--3--3--3--3--3--3--2-2-2-2-2-2-
g--0--0--0--0--0--0--0--0--0--0--0-0-0-0-0-0-
d--2--2--2--2--2--2--2--2--2--2--2-2-2-2-2-2-
a--2--2--2--2--2--2--2--2--2--2--0-0-0-0-0-0-
E--0--0--0--0--0--0--0--0--0--0--------------

Chords:
Em7 A7
my friend
Em7 A7
he looks down upon what you did
Em7 A7
and keeps trying to tell me
Em7 A7
all you really wanna do is use me
Em7 A7
yeah but my answer
Em7 A7
girl to all that use me stuff

(Darius and Edwin)




Ваше мнение



Капча