#----------------------------------PLEASE NOTE---------------------------------#
#This file is the author's own work and represents their interpretation of the #
#song. You may only use this file for private study, scholarship, or research. #
#------------------------------------------------------------------------------##
#

@SONG: Silly Little Pop Song
(tabbed by [email protected])

Intro: (Riff A x2)

(verse - Riff B x4)
One thing's for sure
I just can't find the way
To let it seem like all is wrong
Inside my den

(verse)
Hold back
Breathe easy
She said to me
Go somewhere and change your mind
Just let me sleep

G A C
I've been living in a lesson
G A C
Please just come inside and listen

(verse but Riff B only x3)
Is it anger at life
Or are you happy to be with me
Are you seeing someone

(verse)
Or will your faith
Go with no other man
Come on
Let me dream

G A C
I've been living in a lesson
G A C
Please just come inside and listen
G A C
No need to worry 'bout all the lying
G A C
Please just come inside

(verse)
It's a thing
To make me want to go
See another
That makes me doubt

G A C
I've been living in a lesson
G A C
Please just come inside and listen
G A C
No need to worry 'bout all the lying
All the changing
G A C
Please just come inside

G A C
I've been living in a lesson
G A C
Please just come inside (ooo la-la)
..........
Riff A
e ----------2--------|----------------------------|
B ------3-----3------|-----3-----3----3-----------|
G ----2---2-----2----|-------0-----0--------------|
D --0-------------0--|----------------------------|
A -------------------|--3-------------------------|
E -------------------|----------------------------|

Riff B
e ----------2--------|----------------------------|
B ------3-----3------|-----3-----3----------------|
G ----2---2-----2----|-------0-----0--------------|
D --0-------------0--|---------------2-0----------|
A -------------------|--3-------------------------|
E -------------------|----------------------------|

-----------------------------------------------




Ваше мнение



Капча