Auther/Artist:Hootie And The Blowfish
Title:Hold My Hand
Transcribed by:Justin Harmon
Email:[email protected]

This is my first bass tab.since there
was no other tab for this on the internet,
I figured I'd start. This tab isn't
perfect, but it gets the job done.

Enjoy

Verse(Play Twice)
G-----9-----11--9s------9-----------9---
D--9-----9-----------9----------9-------
A--------------------------9------------
E---------------------------------------

Bridge(Play Twice)
G-------------------
D---------9---------
A--9--7-------------
E-------------------

Chorus(Play 3x)
G-------------------- G-------
D--9----------------- Then D-------
A-----7--9----------- A---7---
E-------------------- E-------




Ваше мнение



Капча